» » »

Westlife, Bop Bop Baby Tabs (ver.1)

Artists:  A B C D E F G H I J K L M N O P Q R S T U V W X Y Z # 

Bop Bop Baby Tabs (ver.1)

Westlife Tabs
 Rating:
4.2/5 (5 votes)
Bop Bop Baby lessons Tabs too difficult? Try these video lessons and learn fast
1
                (Intro)
Bop bop baby - Westlife 

Tuning:EADGBe
 
          It originally played on keyboard,but i transcribed it 
          into my guitar.this is it! Enjoy playing this tab..

   
   Intro:     G               D       A              G             D    A
  e|----0-2------0-2-0-3-|---------|-0---|----0-2------0-2-0-3-|-5-2---2-0--|
  B|--3-----3--3---------|-0-----3-|---2-|--3-----3--3---------|---3-3------|
  G|---------------------|---2-2---|---2-|---------------------|------------|
  D|---------------------|---------|-----|---------------------|------------|
  A|---------------------|---------|-----|---------------------|------------|
  E|---------------------|---------|-----|---------------------|------------|

   (or you use this)
  e|----0-2----0-2-3-2-5----------0-------0-2---0-2-3-2-5-7-----------|
  B|--3-----3-------------0-----3---2---3-----3-------------7---7-5---|
  G|------------------------2-2-----2-----------------------7-7-------|
  D|------------------------------------------------------------------|
  A|------------------------------------------------------------------|
  E|------------------------------------------------------------------|

 
            
Submit corrections

comments powered by Disqus
↑ Back to top | Westlife Tabs for Bop Bop Baby. Lyrics for acoustic guitar and electric guitar. 1 Tablatures and chords are parodies/interpretations of the original songs. You may use it for private study, scholarship, research or language learning purposes only