» » »

Naptown Blues Tabs (ver.1)

Artists:  A B C D E F G H I J K L M N O P Q R S T U V W X Y Z # 

Naptown Blues Tabs (ver.1)

Wes Montgomery
Rating:
0/5 (0 votes)

Hard to play? Try these video lessons and learn fast.
                Lead Guitar



     F       Bb        D/E          C/A      Dm          F/C      Bm7/
E||------------------------|--------------------|--------------------|
B||--10----------------10--|--------8--------6--|--------6--------6--|
G||----------10------------|--------------------|--------------------|
D||--7-----------------7---|--------5--------3--|--------3--------3--|
A||----------8-------------|--------------------|--------------------|
E||------------------------|--------------------|--------------------|


        Bbm6     F/A       C7   Db7D7    G7        Ab7A7    Eb6      
--------------------|------8----9--10-------|-----------------------|
--------6--------6--|--------------------8--|------9--10---------6--|
--------------------|------5----6--7--------|---------------5-------|
--------3--------3--|--------------------5--|------6--7----------3--|
--------------------|-----------------------|---------------3-------|
--------------------|-----------------------|-----------------------|


  D7                     Gm     C7                F7                
--------------------|----11--9--8------------||--------------------|
--------------------|------------------------||---4----------------|
--5--7--------------|----8---6--5------------||*--5----------------|
--------------------|-------------------3----||*-------------------|
--3--5--------------|----------------3-------||--------------------|
--------------------|------------------------||--------------------|


                                                                    
-----------------------|----------------------|--------------------|
-----------------------|----------------------|--------------------|
--3--1-------3----1----|----------------------|--------------------|
--------3--------------|--3------2--3--2------|---------------3----|
-----------------------|----------------------|------------3-------|
-----------------------|----------------------|--------------------|


  Bb7                                          F7                   
-------------------|------------------------|----------------------|
--4----------------|------------------------|----------------------|
--5----------------|--3--1-------3-----1----|---------------1------|
-------------------|--------3-------3-------|--3------2--3---------|
-------------------|------------------------|----------------------|
-------------------|------------------------|----------------------|


  A7      D7           Gm7                 C7                     
--------------------|-------------------|------------------------|
--------------------|--4----------------|------------------------|
--------------------|--5----------------|--3--1-------3-----1----|
---------------3----|-------------------|--------3-------3-------|
------------3-------|-------------------|------------------------|
--------------------|-------------------|------------------------|


  F7        Ab7          G7      Gb7            F7       E/D      
----------------------|---------------------||-------------------|
----------------------|---------------------||-------------------|
----------------------|--------------------*||-------------------|
--3------2--3--2------|---------------3----*||--3----------------|
----------------------|------------3--------||-------------------|
----------------------|---------------------||-------------------|


  F/Eb    Gb/E         G/F   F7                                          
--------------------|------------------------|--------------------------|
--------------------|------------------------|--------------------------|
--------------------|--10----10--------------|--10----------10----------|
----------------12--|--------------------12--|----------12----------12--|
--------------------|------------------------|--------------------------|
--------------------|------------------------|--------------------------|


                                                          
------------------------------|--------------------------|
------------------------------|--------------------------|
--10--12--10------10----------|--10----------10----------|
--------------12----------12--|----------12----------12--|
------------------------------|--------------------------|
------------------------------|--------------------------|


  Bb7                                                           
--10------------------------|----------------------------------|
----------------------------|----------------------------------|
--------12--13--10----------|--10----------10--12--13/12p10----|
------------------------12--|----------12-------------------12-|
----------------------------|----------------------------------|
----------------------------|----------------------------------|


  F7                                           D7       
--------------------------|----------------------------|
--------------------------|----------------------------|
--10----------10----------|--10------------------------|
----------12----------12--|----------10----------------|
--------------------------|--------------13----12--10--|
--------------------------|----------------------------|


  Gm                                   C7                          
--------------------------------10--|--13--------------12/-10--9--|
-------------6/-10----------11------|--------10-------------------|
----------7---------11--12----------|------------13---------------|
----7--8----------------------------|-----------------------------|
------------------------------------|-----------------------------|
------------------------------------|-----------------------------|


  Am            D7           Gm        C7               
--8-----------------------|----------------------------|
-----10--8----------------|------------------------11--|
------------10--9--7------|----------------10--12------|
--------------------------|--------12--13--------------|
--------------------------|----------------------------|
--------------------------|----------------------------|


  F7                                                                
--10--------------------------------|------------------------------|
------13----10----------------------|----------13--11--------------|
----------------11--12--11--10------|------10------------10--------|
--------------------------------13/-|--12--------------------11----|
------------------------------------|------------------------------|
------------------------------------|------------------------------|


                                                      
--------------------------|--------------------------|
----------11--------10----|----9---------7--------8--|
----------------13--------|-------9---------8--------|
--10----------------------|----------11--------9-----|
--------------------------|--------------------------|
--------------------------|--------------------------|


  Bb7                                                  
---------------------------|-----------------6--9--8--|
---------6--------5--------|--------6--8--9-----------|
--8---------7--------5-----|--7--8--------------------|
-----10--------8--------7--|--------------------------|
---------------------------|--------------------------|
---------------------------|--------------------------|


  F7                                                
------5-----------------|--------------------------|
---------8--5-----------|--------------------------|
---------------7--5-----|-----------8--7-----5-----|
---------------------7--|--5-----5--------7-----7--|
------------------------|-----8--------------------|
------------------------|--------------------------|


  Gm                                      C7                         
---------------------------10--13/-17--|----15----12----------------|
--------6/-10----------11--------------|----------------14--13------|
-----7---------11--12------------------|------------------------14--|
--8------------------------------------|----------------------------|
---------------------------------------|----------------------------|
---------------------------------------|----------------------------|


  Am        D7                 Gm          C7       
----------------------------|----------------------|
----------------------------|----------------------|
------12--------------------|----------------------|
------------14--12----------|----------------------|
--------------------15--12--|--10--12--------------|
----------------------------|----------------------|


  F7                                                   
----10--11----11----------|---------------------------|
----12--13----13----------|--11--9--11--9-------------|
----------------------10--|------------------8--10----|
--------------------------|---------------------------|
--------------------------|---------------------------|
--------------------------|---------------------------|


                                                                  
----10--11----11----------|--------------------------------------|
----12--13----13----------|--------------------9--11----9--11----|
--------------------------|--8--10----8--10----------------------|
----------------------10--|--------------------------------------|
--------------------------|--------------------------------------|
--------------------------|--------------------------------------|


  Bb7                                                       
----10--11----11--------|--13--11--------------------------|
----12--13----13--------|------------12--11----------------|
------------------------|----------------------13----10----|
------------------------|----------------------------------|
------------------------|----------------------------------|
------------------------|----------------------------------|


  F7                         Am7               D7             
----10--11----11----------|--------------------11--13--------|
----12--13----13----------|-----------9--11------------------|
--------------------------|--8--10---------------------------|
----------------------10--|----------------------------------|
--------------------------|----------------------------------|
--------------------------|----------------------------------|


  Gm                         C7                                 
----11----------------11--|------------------------------------|
----13--------12--13------|--12p-11--------------11------------|
--------------------------|----------13--10--13--------13--10--|
--------------------------|------------------------------------|
--------------------------|------------------------------------|
--------------------------|------------------------------------|


  Am              D7               Gm      C7           
--------------------------------|------------13----13--|
--------------------------------|----------------------|
--------------------------------|------------10----10--|
--13--10------------------------|----------------------|
----------13------11--12--------|----------------------|
--------------13----------13----|----------------------|


       Cm7    F9        Bb9    Bb13                  Cm7    Dbm7    
--------------8------|--8------8----13----13--|--------------------|
-------8------8------|--6------8--------------|------8------9------|
-------8------8------|--7------7----10----10--|------8------9------|
----8--8------7------|--6------6--------------|------8------9------|
---------------------|------------------------|--------------------|
---------------------|------------------------|--------------------|


  Cm7    F9+/5+                Bb7    F9+       Bb7    Fdim            
---------9----13----13--|--------------------|--------------13----13--|
--8------9--------------|------6------9------|--6------6--------------|
--8------8----10----10--|------7------8------|--7------7----10----10--|
--8------7--------------|------6------7------|--6------6--------------|
---------8--------------|-------------8------|------------------------|
------------------------|--------------------|---------7--------------|


      F7M9   Bb        Am7    D9+                   Dm7    G7      
--------------------|--------------13----13--|--------------------|
------8------6------|--5------6--------------|------6------6------|
------9------7------|--5------5----10----10--|------5------4------|
------7------8------|--5------4--------------|------7------3------|
------8-------------|---------5--------------|------5------5------|
--------------------|--5---------------------|-------------3------|


  Gm7    Bb/C                                   Bb/C   Bbdim           
---------1----13----13--|-------------1------|--1------3----13----10--|
--3------3--------------|------6------0------|--3------2--------------|
--3------3----10----10--|------7------2------|--3------3----10----7---|
--3---------------------|------6------0------|---------2--------------|
---------3--------------|--------------------|--3---------------------|
--3---------------------|--------------------|------------------------|


      Cm7    F9+       Bb     Fdim                  Cm7    F         
--------------------|---------4----13----10--|----------------------|
------8------9------|--6------3--------------|------8------10-------|
------8------8------|--7------4----10----7---|------8------10----8--|
------8------7------|--8------3--------------|------8------10-------|
-------------8------|------------------------|----------------------|
--------------------|------------------------|----------------------|


  F9+    F9-                    Bb     F9+                               
--------------13----10--|----------------------|--------------13----10--|
--9------7--------------|-------6------9-------|--6------6--------------|
--8------8----10----7---|----7--7------8----7--|--7------7----10----7---|
--7------7--------------|-------8------7-------|--8------8--------------|
--8------8--------------|--------------8-------|------------------------|
------------------------|----------------------|------------------------|


      F7M9   Bb7       Am7    D9                     Gm9    Bb      
--------------------|---------10----13----10--|------5-------------|
------8------6------|--5------7---------------|------3------6------|
------9------7------|--5------9-----10----7---|------3------7------|
------7------6------|--5------10--------------|------3------8------|
------8-------------|-------------------------|--------------------|
--------------------|-------------------------|--------------------|


  Gm7    Bb/C              F         D7           Gm        C7          
---------1----13----10--|----------------------|--6----4---------------|
--3------3--------------|----9----6----9----6--|------------6----4--6--|
--3------3----10----7---|----------------------|--3----1---------------|
--3---------------------|----6----3----6----3--|------------3----1--3--|
---------3--------------|----------------------|-----------------------|
--3---------------------|----------------------|-----------------------|


  F7                         Bb7                 F7   
------------------------||---------------------------|
--13----------------12--||---11------------------12--|
----------10------------||*--------13--10------------|
------------------------||*--------------------------|
------------------------||---------------------------|
------------------------||---------------------------|


                                                          
------------------------------|--------------------------|
----13----12--13----------11--|--12--11------------------|
------------------10--13------|----------13--10----------|
------------------------------|--------------------------|
------------------------------|--------------------------|
------------------------------|--------------------------|


  Bb7                                            F7   
------------------------|----------------------------|
--13----------------12--|--13--11----------------12--|
----------10------------|----------13--10------------|
------------------------|----------------------------|
------------------------|----------------------------|
------------------------|----------------------------|


                                 Am7/5-        D7       
--------------------------10--|--11--------10----------|
----13----12--13--10--13------|--------13--------------|
------------------------------|------------------------|
------------------------------|------------------------|
------------------------------|------------------------|
------------------------------|------------------------|


  Gm7      Am7      Gm7         Bbdim    Bb°      A+  
--------------------------|-----3/-2/-2--6/-5/-6--5/-|
--3/-2/-3--5/-4/-5--6/-5/-|--6--2/-1/-1--8/-7/-8--6/-|
--3/-2/-3--5/-4/-5--7/-6/-|--7--3/-2/-2--6/-5/-6--6/-|
--3/-2/-3--5/-4/-5--5/-4/-|--5--2/-1/-1--8/-7/-8-----|
--------------------------|--------------------------|
--------------------------|--------------------------|


        D+          G+        Db+       Gb9-   F9                           
--4/-5--10/-9/--10--3------|--9----------------8--|-----------------------||
--5/-6--11/-10/-11--4------|--10--------8------8--|------------------12---||
--5/-6--11/-10/-11--4------|--10--------9------8--|--------10------------*||
---------------------------|------------8------7--|----------------------*||
---------------------------|------------9------8--|-----------------------||
---------------------------|----------------------|-----------------------||


  Am7/5-        D7    Gm7                            
--11--------10------------|----------------------1--|
--------13------------18--|----18----18--18------3--|
----------------------15--|----15----15--15---------|
----------------------15--|----15----15--15---------|
----------------------17--|----17----17--17---------|
----------------------15--|----15----15--15---------|


  Bb/C                      Eb9/5-    D9/5+        Db9/5-    C13     
--1----1----1--1--1----|----5--5------6--6----|----3--3------5------|
--3----3----3--3--3----|----6--6------5--5----|----4--4------3------|
--3----3----3--3--3----|----6--6------5--5----|----4--4------3------|
-----------------------|--------------4--4----|--------------2------|
--3--------------------|----6--6------5--5----|----4--4------3------|
-----------------------|----------------------|---------------------|


  F       Bb        D/E          C/A      Dm          F/C      Bm7/
------------------------|--------------------|--------------------|
--10----------------10--|--------8--------6--|--------6--------6--|
----------10------------|--------------------|--------------------|
--7-----------------7---|--------5--------3--|--------3--------3--|
----------8-------------|--------------------|--------------------|
------------------------|--------------------|--------------------|


        Bbm6     F/A       C7   Db7D7    G7        Ab7A7    Eb6      
--------------------|------8----9--10-------|-----------------------|
--------6--------6--|--------------------8--|------9--10---------6--|
--------------------|------5----6--7--------|---------------5-------|
--------3--------3--|--------------------5--|------6--7----------3--|
--------------------|-----------------------|---------------3-------|
--------------------|-----------------------|-----------------------|


  D7                     Gm     C7              F7                
--------------------|----11--9--8------------|-------------------|
--------------------|------------------------|--4----------------|
--5--7--------------|----8---6--5------------|--5----------------|
--------------------|-------------------3----|-------------------|
--3--5--------------|----------------3-------|-------------------|
--------------------|------------------------|-------------------|


                                                                    
-----------------------|----------------------|--------------------|
-----------------------|----------------------|--------------------|
--3--1-------3----1----|----------------------|--------------------|
--------3--------------|--3------2--3--2------|---------------3----|
-----------------------|----------------------|------------3-------|
-----------------------|----------------------|--------------------|


  Bb7                                          F7     E/D       F/Eb 
-------------------|------------------------|-----------------------|
--4----------------|------------------------|---------12--------13--|
--5----------------|--3--1-------3-----1----|-----------------------|
-------------------|--------3-------3-------|--3--------------------|
-------------------|------------------------|-----------------------|
-------------------|------------------------|-----------------------|


        Gb/E      G/F                            
----------------------|-------------------------|
--------14--------15--|---------------12----12--|
----------------------|----8----12--------------|
----------------------|---------------9-----9---|
----------------------|----6----10--------------|
----------------------|-------------------------|


                                                           
------------15--15--15--------|---------------------------|
--15----15--------------15----|--15--12----12--8----8-----|
------------12--12--12--------|------------------------8--|
--12----12--------------12----|--12--9-----9---5----5-----|
------------------------------|------------------------6--|
------------------------------|---------------------------|


                                                  
------------------------|-----------------------||
------------------------|-----------------------||
----8--7--8--7----------|----7--8--7------------||
------------------------|-----------------------||
----6--5--6--5----------|----5--6--5------------||
------------------------|-----------------------||
            
Hard to play? Try these video lessons and learn fast. | Correct




comments powered by Disqus
↑ Back to top | Tablatures and chords are parodies/interpretations of the original songs. You may use it for private study, scholarship, research or language learning purposes only