>
 >
Movin Wes Part 2

Movin Wes Part 2 Guitar Tabs

Wes Montgomery - Movin Wes Part 2 chords, tabs, tablatures, lyrics

Guitar lessons | Add/correct | Request | Top 50 tabs Artists:  A B C D E F G H I J K L M N O P Q R S T U V W X Y Z 0-9

Movin Wes Part 2 Guitar Tabs – Wes Montgomery

CD, Sheet music, Poster

Do you like Movin Wes Part 2? Share with your friends now
Tabs
Movin' Wes - Part II   -   Wes Montgomery
(Lead Guitar)



      Dm                   7x                      
E||------------------------||---------------------|
B||------------------------||------------------8--|
G||*----------------------*||---------------7-----|
D||*---------7----7--7----*||------------7-----5--|
A||---5--------------------||---------------5-----|
E||------------------------||------------5--------|


    Dm          G/D           Dm7         G/D         
|--------------------------|-------------------------|
|---6--6--6--8----------8--|--6--6--6-------------8--|
|*-------------------7-----|-----------7-------7-----|
|*--3--3--3--5----7-----5--|--3--3--3-------7-----5--|
|--------------------5-----|-----------5-------5-----|
|-----------------5--------|----------------5--------|


  Dm          G/D           Dm7         G/D         
-------------------------|-------------------------|
--6--6--6--8----------8--|--6--6--6-------------8--|
-------------------7-----|-----------7-------7-----|
--3--3--3--5----7-----5--|--3--3--3-------7-----5--|
-------------------5-----|-----------5-------5-----|
----------------5--------|----------------5--------|


  Dm          G/D           Dm7         G/D         
-------------------------|-------------------------|
--6--6--6--8----------8--|--6--6--6-------------8--|
-------------------7-----|-----------7-------7-----|
--3--3--3--5----7-----5--|--3--3--3-------7-----5--|
-------------------5-----|-----------5-------5-----|
----------------5--------|----------------5--------|


  Dm          G/D           Dm7         G/D         Dm7/G        Em7/G 
-------------------------|-----------------------|--------------------|
--6--6--6--8----------8--|--6--6--6-------8------|---------------3----|
-------------------7-----|-----------7-----------|--5-----------------|
--3--3--3--5----7-----5--|--3--3--3-------5------|--5------------5----|
-------------------5-----|-----------5-----------|--------------------|
----------------5--------|-----------------------|--3------------3----|


                          Dm9/G        Em7/G                        
-----------------10----|--------------------|----------------------|
----------8------------|--5------------3----|----------8-----------|
-------7---------7-----|--------------------|-------7---------7----|
----5-----5------------|--5------------5----|----5-----5-----------|
-------5---------------|--------------------|-------5---------5----|
----3------------------|--3------------3----|----3-----------------|


  Dm7/G        Em7/G                           Dm9/G        Em7/G 
--------------------|-----------------10----|--------------------|
---------------3----|----------8------------|--5------------3----|
--5-----------------|----7--7---------7-----|--------------------|
--5------------5----|----------5------------|--5------------5----|
--------------------|----5--5---------------|--------------------|
--3------------3----|-----------------------|--3------------3----|


                                                       Dm7                
-------------------------||-------------------------|--------------------|
----------8----------8---||--6--6--6-------9/-10----|--10----------------|
-------7----------7-----*||-----------7-------------|--------------------|
----5-----5----7-----5--*||--3--3--3-------6/-7-----|--7-----------------|
-------5----------5------||-----------5-------------|--------------------|
----3----------5---------||-------------------------|--------------------|


  Em7/D                   Dm9                       Em7/D                
--7----7---------------|--------------8----10----|--7----7--------------|
----------8----8-------|------10--10-------------|------------8---------|
--4----4----------7----|--------------5----7-----|--4----4---------7----|
----------5----5-------|------7---7--------------|------------5---------|
------------------5----|-------------------------|-----------------5----|
-----------------------|-------------------------|----------------------|


  Dm7                  Em7/D                                               
--------12----------|--10/-12/-10--7------5---------|---------------------|
--------------------|--------------------------8----|---------8------6----|
--------9-----------|--7/--9/--7---4------2---------|--7------------------|
--------------------|--------------------------5----|---------5------3----|
--------------------|-------------------------------|--5------------------|
--------------------|-------------------------------|---------------------|


                        Ebm7                  Fm7/Eb                  
----5----7----8------|---------------------|----6----8--9--11--13----|
---------------------|---------9------7----|-------------------------|
----2----4----5------|--8------------------|----3----5--6--8---10----|
---------------------|---------6------4----|-------------------------|
---------------------|--6------------------|-------------------------|
---------------------|---------------------|-------------------------|


  Ebm9                  Fm7/Eb                     Ebm7              
---------------------|--13----13----13----11----|-------------------|
---------9------7----|--------------------------|-------------------|
--8------------------|--10----10----10----8-----|--8----------------|
---------6------4----|--------------------------|-------------------|
--6------------------|--------------------------|--6----------------|
---------------------|--------------------------|-------------------|


  Fm7/Eb                      Ebm9                  
---------------13----14----|---------------6----9--|
----7--11--13--------------|-------6--7------------|
---------------10----11----|--8------------3----6--|
----4--8---10--------------|-------3--4------------|
---------------------------|--6--------------------|
---------------------------|-----------------------|


  Fm7/Eb                        Ebm                   
--13----11--8----11/-13--13--|------11----11----9----|
-----------------------------|-----------------------|
--10----8---5----8/--10--10--|------8-----8-----6----|
-----------------------------|-----------------------|
-----------------------------|-----------------------|
-----------------------------|-----------------------|


                                                
--9----6--9--6----------|----------------------|
------------------6--4/-|--6--4--4--4----------|
--6----3--6--3----------|----------------------|
------------------3--1/-|--3--1--1--1----------|
------------------------|----------------------|
------------------------|----------------------|


                                             Ebm9             
----------------------------11-11-|--11----------------------|
------------------11-11-11--------|----------6--6---------6--|
-----------8-8-8------------8--8--|--8-------6--6---------6--|
----8-8-8---------8--8--8---------|----------4--4---------4--|
-----------6-6-6------------------|----------6--6--6-6-6--6--|
----6-6-6-------------------------|----------------6-6-6-----|


  Ebm                                           Ebm9             
-------------------------------11-11-|--11----------------------|
---------------------11-11-11--------|----------6--6---------6--|
-----------10-10-10------------8--8--|--8-------6--6---------6--|
----8-8-8------------8--8--8---------|----------4--4---------4--|
-----------8--8--8-------------------|----------6--6--6-6-6--6--|
----6-6-6----------------------------|----------------6-6-6-----|


  Ebm                                  Ebm9             
----9--13--9-----------------|-------------------------|
--------------11-------------|---------6--6---------6--|
----6--10--6------11--10--8--|--8------6--6---------6--|
--------------8--------------|---------4--4---------4--|
------------------9---8---6--|--6------6--6--6-6-6--6--|
-----------------------------|---------------6-6-6-----|


  Ebm                                     Ebm9             
----13--16--13------------------|-------------------------|
----------------14--11----------|---------6--6---------6--|
----10--13--10----------11--10--|--8------6--6---------6--|
----------------11--8-----------|---------4--4---------4--|
------------------------9---8---|--6------6--6--6-6-6--6--|
--------------------------------|---------------6-6-6-----|


  Ebm                                   Ebm9             
-------------------11--13----|--11----------------------|
-----------11--14------------|----------6--6---------6--|
----8--11----------8---10----|--8-------6--6---------6--|
-----------8---11------------|----------4--4---------4--|
----6--9---------------------|----------6--6--6-6-6--6--|
-----------------------------|----------------6-6-6-----|


  Ebm                                            Ebm9            
----13-13-13--------------------------|-------------------------|
--------------14-14-14--11-11-11------|----------6--6--------6--|
----10-10-10----------------------11--|--10------6--6--------6--|
--------------11-11-11--8--8--8-------|----------4--4--------4--|
----------------------------------9---|--8-------6--6--6--6--6--|
--------------------------------------|----------------6--6-----|


  Ebm                     Ebm7    Fm7/Eb                                 
-----------------------|------------------|--11/-13--11--9--------------|
-----------------------|------------------|-------------------11--9--7--|
------8----10----12----|------------------|--8/--10--8---6--------------|
-----------------------|------------------|-------------------8---6--4--|
------6----8-----10----|------------------|-----------------------------|
-----------------------|------------------|-----------------------------|


  Ebm9      Fm7/Eb                             Ebm7          Fm7/Eb
--------------------|-----------------------|---------------------|
--------------------|-----------------------|---------6------6----|
--8--8--------------|----------3--5----6----|--8------------------|
--------------------|--4----6---------------|---------3------3----|
--6--6--------------|----------1--3----4----|--6------------------|
--------------------|--2----4---------------|---------------------|


                           Em7              F#m7/E                         
------------------------|------------7--10--9----|--------7--10--9--------|
------------------------|---------8--------------|-----8------------------|
----------3--3--5--6----|------7-----4--7---6----|--7-----4--7---6--------|
----4--6----------------|---------5--------------|-----5------------------|
----------1--1--3--4----|------5-----------------|--5---------------------|
----2--4----------------|------------------------|------------------------|


  Em7                  F#m7                         
-------------7--10--9-----|--------9--10--9--------|
----------8---------------|-----8------------------|
-------9-----4--7---6--8--|--9-----6--7---6--------|
----9-----5---------------|-----5------------------|
-------7---------------6--|--7---------------------|
----7---------------------|------------------------|


  Em9                  F#m7                             
-------------7--10--9--7--|-----------------------5----|
----------8---------------|--10----8----7----5---------|
-------9-----4--7---6--4--|-----------------------2----|
----9-----5---------------|--7-----5----4----2---------|
-------7------------------|----------------------------|
----7---------------------|----------------------------|


  Em7                   Fm9   Em9                       
--14----14--14--14---------|---------14--14----12--14--|
------------------------8/-|--7------------------------|
--11----11--11--11------8/-|--7------11--11----9---11--|
------------------------6/-|--5------------------------|
------------------------8/-|--7------------------------|
---------------------------|---------------------------|


                        Fm9   Em9                         
--14----12--14--12---------|---------14--14------14------|
------------------------8/-|--7--------------15------15--|
--11----9---11--9-------8/-|--7------11--11------11------|
------------------------6/-|--5--------------12------12--|
------------------------8/-|--7--------------------------|
---------------------------|-----------------------------|


                        Fm9   Em9                        
--14----14--14--14---------|---------14--14--10--12--9--|
------------------------8/-|--7-------------------------|
--11----11--11--11------8/-|--7------11--11--7---9---6--|
------------------------6/-|--5-------------------------|
------------------------8/-|--7-------------------------|
---------------------------|----------------------------|


                     Fm9   Em9                      
------------------------|---------9--10----10--12--|
--10----12-----------8/-|--7-----------------------|
--------------9------8/-|--7------6--7-----7---9---|
--7-----9------------6/-|--5-----------------------|
--------------7------8/-|--7-----------------------|
------------------------|--------------------------|


  Em7               F#m7/                           
--14----15--14----------|--12----12--9----9--------|
------------------------|--------------------10----|
--11----12--11----------|--9-----9---6----6--------|
------------------------|--------------------7-----|
------------------------|--------------------------|
------------------------|--------------------------|


  Em9           F#m7/E                                 
------------------------|-----------------------------|
------------------------|---------10------------------|
--11----12--11----------|--9--11-------11-------------|
------------------------|---------7-------12----11----|
--9-----10--9-----------|--7--9--------9--------------|
------------------------|-----------------10----9-----|


  Em7                     F#m7/E                                  
--------------------------------|----------------------------12--|
--------------------------------|--------12----14------15--------|
--------------------------11----|--12------------------------9---|
----11--11--12------14----------|--------9-----11------12--------|
--------------------------9-----|--10----------------------------|
----9---9---10------12----------|--------------------------------|


  Em7                   F#m7/E                        
--14--12----------------------|----------------------|
----------14--12--10----12----|--------------10------|
--11--9-----------------------|--9----9--------------|
----------11--9---7-----9-----|--------------7-------|
------------------------------|--7----7--------------|
------------------------------|----------------------|


  Em9                F#m7                       
---------10--10------7--|-----------------7----|
--7---------------------|----8----5--8---------|
--7------7---7-------4--|-----------------4----|
--5---------------------|----5----2--5---------|
--7---------------------|----------------------|
------------------------|----------------------|


    Em9              F#m7/E                              
|----------14--14----10--14--|--9-----------------------|
|---7------------------------|-------10--10-------------|
|*--7------11--11----7---11--|--6------------11---------|
|*--5------------------------|-------7---7---------9----|
|---7------------------------|---------------9----------|
|----------------------------|---------------------7----|


  Em9              F#m7/E                          4x
---------10--10----14----|--12----9----------------||
--7----------------------|-------------10----7/----||
--7------7---7-----11----|--9-----6---------------*||
--5----------------------|-------------7-----4/---*||
--7----------------------|-------------------------||
-------------------------|-------------------------||





Comments


Popular Wes Montgomery tabs & chords
Bumpin Tabs
Days Of Wine And Roses Tabs
Far Wes Tabs
Four On Six Tabs
Four On Six Intro Tabs
Misty Tabs
Round Midnight Tabs
Serene Tabs
West Coast Blues Tabs
One For My Baby Ukulele


Song lyrics



↑ Back to top | Tablatures and chords are parodies/interpretations of the original songs. You may use it for private study, scholarship, research or language learning purposes only
© 2014 AZChords.com Contact us | Privacy policy | DMCA | Add/correct tabs | Request tabs | Top 50 tabs