» » »

Movin Wes Tabs (ver.1)

Artists:  A B C D E F G H I J K L M N O P Q R S T U V W X Y Z # 

Movin Wes Tabs (ver.1)

Wes Montgomery
Rating:
0/5 (0 votes)

Hard to play? Try these video lessons and learn fast.
                (Part)
Movin' Wes Part 1 - Wes Montgomery
Lead Guitar



     G7      Ab7             G7      Ab7             G7      Ab7           
E||-----------------------|-----------------------|-----------------------|
B||-----------------------|-----------------------|-----------------------|
G||-----------------------|-----------------------|-----------------------|
D||-----------------------|-------5---------------|-------5---------------|
A||-------5-------6----5--|---------------6----5--|---------------6----5--|
E||--3-------4------------|--3-------4------------|--3-------4------------|


  G7      Db7             C7      Db7             C7      Ab7           
-----------------------|-----------------------|-----------------------|
-----------------------|-----------------------|-----------------------|
-----------------------|-------5---------------|-------5---------------|
-------5-------6----5--|---------------6----5--|----------6------------|
----------4------------|--3-------4------------|--3------------6----5--|
--3--------------------|-----------------------|-----------------------|


  G7      Ab7             G7      Eb7             D7      Db7           
-----------------------|-----------------------|-----------------------|
-----------------------|-----------------------|-----------------------|
-----------------------|-----------------------|-------7---------------|
-------5---------------|-------5-------8----7--|---------------6----5--|
---------------6----5--|----------6------------|--5-------4------------|
--3-------4------------|--3--------------------|-----------------------|


  C7      Ab7             G7      Ab7             G7      Ab7           
-----------------------|-----------------------|-----------------------|
-----------------------|-----------------------|--------------------6--|
-------5---------------|-----------------------|-----------------7-----|
----------6------------|-------5---------------|-------5------------3--|
--3------------6----5--|---------------6----5--|-----------------5-----|
-----------------------|--3-------4------------|--3-------4------------|


    G7      Ab7              G7    Ab7               G7          Ab7       
|-------------------------|-----------------------|-----------------------|
|---8----8--6--8/---11----|--------11----10----8--|--10--8/-6-------------|
|*------------------------|-----------------------|--------------7--------|
|*--5----5--3--5/---8-----|--------8-----7-----5--|--7---5/-3-------------|
|-------------------------|-----------------------|--------------5--------|
|-------------------------|-----------------------|-----------------------|


  Gb7     Db7          C7      Db7              C7    Ab7             
--------------------|------------------------|-----------------------|
--------------------|--8----8-----8----11----|--------11----10----8--|
--------------5--9--|----------9-------------|-----------------------|
--------------------|--5----5-----5----8-----|--------8-----7-----5--|
--------------3--7--|----------7-------------|-----------------------|
--------------------|------------------------|-----------------------|


  G7          Ab7         G7      Eb7         D7          Db7         
-----------------------|-------------------|--------------10---------|
--10--8/-6-------------|-------------------|--------10----------8----|
--------------7--------|----------------7--|--11----------7----------|
--7---5/-3-------------|-------------------|--------7-----------5----|
--------------5--------|----------------5--|--9----------------------|
-----------------------|-------------------|-------------------------|


  C7         Ab7            Gb7     Ab7        G7    Ab7             
--8----------------------|------------------|----------------------||
-------11-------8--8--8/-|------------------|----------------------||
--5----------9-----------|------------------|--------7--------10--*||
-------8--------5--5--5/-|------------------|---------------------*||
-------------7-----------|------------------|--------5--------8----||
-------------------------|------------------|----------------------||


      G7        Ab7      G7                         
------12--------15----|--12----12--12--12----12----|
----------------------|----------------------------|
------9---------12----|--9-----9---9---9-----9-----|
----------------------|----------------------------|
----------------------|----------------------------|
----------------------|----------------------------|


                                                              
--12--15--12--12------------12--|--10------------------------|
------------------------10------|------12--------------------|
--9---12--9---9-----10------9---|--7-------12----------------|
------------------------7-------|------9---------12--12------|
--------------------8-----------|----------10----------------|
--------------------------------|----------------10--10------|


                                 C7                               
------10----13----10----13----|--10----13----10----12----15------|
------------------------------|------------------------------12--|
------7-----10----7-----10----|--7-----10----7-----9-----12------|
------------------------------|------------------------------9---|
------------------------------|----------------------------------|
------------------------------|----------------------------------|


                              G7                   
--10----8--6---------------|----------------------|
--------------8-6----------|----------------------|
--7-----5--3------7--5--4--|-------4--------------|
--------------5-3----------|--5---------3--3------|
------------------5--3--2--|-------2--------------|
---------------------------|--3---------1--1------|


                              D7                      
--------10--13--10--8--10--|-------6-----8--6--------|
---------------------------|----8--------------8-----|
--------7---10--7---5--7---|-------3--7--5--3-----9--|
---------------------------|----5--------------5-----|
---------------------------|----------5-----------7--|
---------------------------|-------------------------|


  C7                     G7                       D7                      
----------------------|------------------------|----------6/-8--6--------|
--8-------------------|------------------------|----8--8-----------8--6--|
------------7------5--|--4---------------------|----------3/-5--3--------|
--5----5--------------|-----5--5--3--5/-8------|----5--5-----------5--3--|
------------5------3--|--2---------------------|-------------------------|
-------3--------------|-----3--3--1--3/-6------|-------------------------|


  G7                                                                    
-----------------------|-----------8--6--------|-----------------------|
--8----17--------15----|--------8--------8--6--|--8----17--------15----|
-----------------------|-----------5--3--------|-----------------------|
--5----14--------12----|--------5--------5--3--|--5----14--------12----|
-----------------------|-----------------------|-----------------------|
-----------------------|-----------------------|-----------------------|


                            C7                        
----------6--8--6--------|---------12--15----12------|
-----8-8-----------8--5--|--8--------------------11--|
----------3--5--3--------|---------9---12----9-------|
-----5-5-----------5--2--|--5--------------------8---|
-------------------------|---------------------------|
-------------------------|---------------------------|


                               G7                      
------------------9--10--8--|--7--7-------------------|
--8----8--10--11------------|----------8---6--6----8--|
------------------6--7---5--|--4--4------7------------|
--5----5--7---8-------------|----------5---3--3----5--|
----------------------------|------------5------------|
----------------------------|-------------------------|


                             D7                          
--7--7----------------14--|-------------------------10--|
----------8---6--6--------|--15--13--10------8--11------|
--4--4------7---------11--|-------------------------7---|
----------5---3--3--------|--12--10--7-------5--8-------|
------------5-------------|-----------------------------|
--------------------------|-----------------------------|


  C7                         G7                      
--8--6--------------------|-------------------------|
--------8--6--------------|-----8--8--5--8----11----|
--5--3--------7--5--3-----|--4----------------------|
--------5--3-----------5--|-----5--5--2--5----8-----|
--------------5--3--1-----|--2----------------------|
-----------------------3--|-------------------------|


  D7             D9/5+    G9        D9/5+        
-----------------12----|--10--------12----12----|
------8---8-8----11----|--10--------11----11----|
-----------------11----|--10--------11----11----|
------5---5-5----10----|--9---------10----10----|
-----------------------|------------------------|
-----------------------|------------------------|


  G9      G13    D9/5+          G9          D9/5+        
--10------3------12----12----|--10----------12----12----|
--10------5------11----11----|--10----------11----11----|
--10------4------11----11----|--10----------11----11----|
--9-------3------10----10----|--9-------9---10----10----|
-----------------------------|----------10--------------|
-----------------------------|--------------------------|


  G9      G13    G9/5+        C9       G9/5+      
--10------3------5----5----|--3--------5----5----|
--10------5------4----4----|--3--------4----4----|
--10------4------4----4----|--3--------4----4----|
--9-------3------3----3----|--2--------3----3----|
---------------------------|--3------------------|
---------------------------|---------------------|


  C9            D9/5+          G9        D9/5+        
--3-------------12----12----|--10--------12----12----|
--3------3------11----11----|--10--------11----11----|
--3------3------11----11----|--10--------11----11----|
--2------2------10----10----|--9---------10----10----|
--3------3------------------|------------------------|
----------------------------|------------------------|


  G9      G13      Eb9   D9                Db9    
--10------3--------6--|--5-----5-----5-----4-----|
--10------5--------6--|--5-----5-----5-----4-----|
--10------4--------6--|--5-----5-----5-----4-----|
--9-------3-----------|--4-----4-----4-----3-----|
----------------------|-----5-----5-----5-----4--|
----------------------|-----5-----5-----5-----4--|


  C9          Gdim           G13           G7 G13     
--3-----3-----9--8--6--3--|--------------------------|
--3-----3-----8--7--5--2--|--5----5--------3--5--5-5-|
--3-----3-----9--8--6--3--|--4----4---4----4--4--4-4-|
--2-----2-----8--7--5--2--|--3----3---3----3--3------|
-----3-----3--------------|--------------------------|
-----3-----3--------------|-------------3------------|


              Gdim          G9                      
--------------3--6--3--|--9/10-----9/10-----9/10---|
-----------5--2--5--2--|--9/10-----9/10-----9/10---|
-----------6--3--6--3--|--9/10-----9/10-----9/10---|
-----------5--2--5--2--|--8/9------8/9------8/9----|
-----------------------|--9/10--------------9/10---|
--3--------------------|---------------------------|


      G9       C13       G13         G9          C7       C9    
----9/10-----------------3----|------10----10-------------3----|
----9/10---10--10--9--8--5----|------10----10----8--7--6--3----|
----9/10---10--9---8--7--4----|------10----10----9--8--7--3----|
----8/9----9---8---7--6--3----|------9-----9-----8--7--6--2----|
----9/10----------------------|------10----10-------------3----|
------------------------------|--------------------------------|


  C13               Ab13   C13             Gdim  D9+ 
--10----10----------13--|--10----------8---6--3-----|
--10----10----------11--|--10----8--8--10--5--2--6--|
--9-----9-----------11--|--9-----9--9--9---6--3--5--|
--8-----8-----------10--|--8-----8--8--8---5--2--4--|
------------------------|------------------------5--|
------------------------|---------------------------|


  G7               Dm7        G7                D13  
----------------------5----|--------------13----12--|
--3----3--3-3-3-3--6--6----|--3----3------------12--|
--4----4--4-4-4-4--5--5----|--4----4------10----11--|
--3----3--------------7----|--3----3------------10--|
----------------------5----|------------------------|
---------------------------|------------------------|


                  Eb13  C13      C7   Gdim          D9+ 
----12--12--12----13----10--|----8----9---8---6--3-----|
----12--12--12----13----10--|----8----11--10--8--5--6--|
----11--11--11----12----9---|----9----9---8---6--3--5--|
----10--10--10----11----8---|----8----11--10--8--5--4--|
----------------------------|---------10------------5--|
----------------------------|--------------------------|


  G7          D9+  G7            D7                G7       Ab7      
----------------------|----------------6--------|-------------------|
--3----3------6----3--|----8--8--6--8-----8--6--|--8----------------|
--4----4------5----4--|----------------3--------|-------------------|
--3----3------4----3--|----5--5--3--5-----5--3--|--5----------------|
--------------5-------|-------------------------|-------------------|
----------------------|-------------------------|-------------------|


  G7      Ab7            G7       Ab7        G7      Db7          
----------8--6--------|-------------------|----------8--6--------|
----------------8--6--|--8----------------|----------------8--5--|
----------5--3--------|-------------------|----------5--3--------|
----------------5--3--|--5----------------|----------------5--2--|
----------------------|-------------------|----------------------|
----------------------|-------------------|----------------------|


  C7       Db7        C7      Ab7            G7       Ab7      
-------------------|----------8--6--------|-------------------|
--8----------------|----------------8--5--|--8----------------|
-------------------|----------5--3--------|-------------------|
--5----------------|----------------5--2--|--5----------------|
-------------------|----------------------|-------------------|
-------------------|----------------------|-------------------|


  G7       Eb7            D7         Db7          C7        Ab7          
--------9--10------8-6-|--8--10-----------6----|------------8--6--------|
-----------------------|---------------8-------|--8---------------8---5-|
--------6--7-------5-3-|--5--7------------3----|-------5----5--3--------|
-----------------------|---------------5-------|--5---------------5---2-|
-----------------------|-----------------------|-------3----------------|
-----------------------|-----------------------|------------------------|


  G7       Ab7        G7      Ab7          G7      Ab7            
-------------------|--------------------|------------------------|
--8----------------|-----------------8--|--8----8--6--8/---11----|
-------------------|--------------7-----|------------------------|
--5----------------|-----------------5--|--5----5--3--5/---8-----|
-------------------|--------------5-----|------------------------|
-------------------|--------------------|------------------------|


  G7    Ab7               G7          Ab7         Gb7     Db7        
-----------------------|-----------------------|--------------------|
--------11----10----8--|--10--8/-6-------------|--------------------|
-----------------------|--------------7--------|--------------5--9--|
--------8-----7-----5--|--7---5/-3-------------|--------------------|
-----------------------|--------------5--------|--------------3--7--|
-----------------------|-----------------------|--------------------|


  C7      Db7              C7    Ab7               G7          Ab7       
------------------------|-----------------------|-----------------------|
--8----8-----8----11----|--------11----10----8--|--10--8/-6-------------|
----------9-------------|-----------------------|--------------7--------|
--5----5-----5----8-----|--------8-----7-----5--|--7---5/-3-------------|
----------7-------------|-----------------------|--------------5--------|
------------------------|-----------------------|-----------------------|


  G7      Eb7         D7          Db7           C7         Ab7          
-------------------|--------------10---------|--8----------------------|
-------------------|--------10----------8----|-------11-------8--8--8/-|
----------------7--|--11----------7----------|--5----------9-----------|
-------------------|--------7-----------5----|-------8--------5--5--5/-|
----------------5--|--9----------------------|-------------7-----------|
-------------------|-------------------------|-------------------------|


  Gb7     Ab7        G7      Ab7       
------------------|------------------||
------------------|------------------||
------------------|------------------||
------------------|------------------||
------------------|------------------||
------------------|------------------||
            
Hard to play? Try these video lessons and learn fast. | Correct




comments powered by Disqus
↑ Back to top | Tablatures and chords are parodies/interpretations of the original songs. You may use it for private study, scholarship, research or language learning purposes only