» » »

Welch Gillian, Revelator Tabs (ver.1)

Artists:  A B C D E F G H I J K L M N O P Q R S T U V W X Y Z # 

Revelator Tabs (ver.1)

Welch Gillian Tabs
 Rating:
4/5 (4 votes)
Revelator lessons Tabs too difficult? Try these video lessons and learn fast
                
Gillian Welch
Revelator (Live Version)

I tried to get as close as I could. Let me know of any tweaks that sound better. 

Capo 4th Fret

Intro:

--------0-------------------------|----- 
-----3/5--5p3---------------------|-----
--------------5-2h4p2-0-0h2/4-----|-----
------------------------------0-0h|2----
----------------------------------|-----
----------------------------------|-----


Solo 1:

--------------|---0-0------------|---------------|
-3/5--0---3~--|3/5-----3h5-3-----|---3-----------|
------2---2~--|--------------4-2-|2/4---2p0-----0|
--------------|------------------|----------0h2--|
--------------|------------------|---------------|
--------------|------------------|---------------|

--------------|--------------|------------------|
--------------|--------------|----------0h3-3/5-|
--------0-0---|----------0-0-|------0h2---------|
0h1/2---2-0---|0h2p0h2-0-2-2-|---0h2------------|
--------------|--------------|(3)---------------| 
--------------|--------------|------------------|

-----3-5b-3-5p3-----------|----------------------|
-3/5-----------5p3-3\1-0h1|----------------------|
--------------------------|2/4-0--------------0--|
--------------------------|------4/5-5\4--4-0-0h2| 
--------------------------|----------------------|
--------------------------|----------------------|

---0-strum--------|--3--3--3--3--------------
---3-through------|--5--5--5--5--------------
---0-measure------|--0--0--0--4--------------
------------------|-------------------------- 
------------------|--------------------------
------------------|--------------------------


Solo 2:


-------------|-------------|----------------|
-5p3-0---3---|3---------3--|5b--5p3-------3-| 
-----2/4-4---|-4\2--2/4-4--|-------4--2/4-4-| 
-------------|-------------|----------------| 
-------------|-------------|----------------|
-------------|-------------|----------------|

----------------|--0-strum---|-----0--3p0-0--------|
-0--0-----------|--3-through-|-3/5--5------5-3-----|
-0--0--0h2p0----|--0-measure-|----------------4\2p0|
-----------0-0h2|------------|---------------------|
----------------|------------|---------------------|
----------------|------------|---------------------|


----------------|--------------|--3-0-3-0-3-0-5b-3-|
----------------|--------------|5---5-5-5-5-5------|
-2/4-4h5p4------|-----0h2p0-2/4|-4-----------------|
-----------0-0h2|-0h2----------|-------------------|
----------------|--------------|-------------------|
----------------|--------------|-------------------|


-3p0----------|----------------|
-----5p0------|----5-3~--------|
---------4p0-2|2/4-4-4~--------|
--------------|----------------|
--------------|----------------|
--------------|----------------|
            
Submit corrections

comments powered by Disqus
↑ Back to top | Welch Gillian Tabs for Revelator. Lyrics for acoustic guitar and electric guitar. Tablatures and chords are parodies/interpretations of the original songs. You may use it for private study, scholarship, research or language learning purposes only