>
 >
Virus Alert

Virus Alert Guitar Tabs

Weird Al Yankovic - Virus Alert chords, tabs, tablatures, lyrics

Guitar lessons | Add/correct | Request | Top 50 tabs Artists:  A B C D E F G H I J K L M N O P Q R S T U V W X Y Z 0-9

Virus Alert Guitar Tabs – Weird Al Yankovic

CD, Sheet music, Poster

Do you like Virus Alert? Share with your friends now
ChordsTabsUkulele

Tuning: e B G D A E

verse 1:
e|---------------------------------------------------------------------------|
B|---------------------------------------------------------------------------|
G|-----------------------------------------------------4--4-4----------------|
D|-4-4-4-4-4-4-4-4-4-4-4-4-4-4-4-4-2-2-2-2-2-2-2-2-2-2-2--2-2--4-4-4-4-4-4-4-|
A|---------------------------------------------------------------------------|
E|---------------------------------------------------------------------------|

e|--------------------------------------------------|
B|--------------------------------------------------|
G|--------------------------------------------------|
D|-4------------------------------------------------|
A|---2-2-2-2-2-2-2-2-4--5-4--5-4--5-4-5-4-5-4-2-0---|
E|------------------------------------------------4-|


verse 2:
e|---------------------------------------------------------------------------|
B|---------------------------------------------------------------------------|
G|---------------------------------------------------------------------------|
D|-4-4-4-4-4-4-4-4-4-4-4-4-4-4-4-4-2-2-2-2-2-2-2-2-2-2-2-2-2-2-2-2-4-4-4-4-4-|
A|---------------------------------------------------------------------------|
E|---------------------------------------------------------------------------|

e|------------------------------------------------|
B|------------------------------------------------|
G|-----------------------6--6-6--8--8-8-----------|
D|-4-4-------------------6--6-6--8--8-8-----------|
A|-------2-2-2-2-2-2-2-2-4--4-4--6--6-6--/6-4-----|
E|--------------------------------------------7-6-|


pre-chorus:
e|--------------------------------------------------------------|
B|--------------------------------------------------------------|
G|---------6-6---------6-6---------6-6--------------------------|
D|-6--6--6-6-6-6--6--6-6-6-6--6--6-6-6----------------------4---|
A|-6--6--6-4-4-6--6--6-4-4-6--6--6-4-4------------------4-6-----|
E|-4--4--4-----4--4--4-----4--4--4---------2--2-2---2h4---------|
-| (guitar 2:)                                                  |
e|--------------------------------------------------------------|
B|--------------------------------------------7-7-7-9^(11)-9-77-|
G|------------------------------------------/6-6-6--------------|
D|--------------------------------------------------------------|
A|--------------------------------------------------------------|
E|--------------------------------------------------------------|


pre-chorus 2:
e|--------------------------------------------------------------------|
B|--------------------------------------------------------------------|
G|-11-9---------------------------9-11---------------------------11-9-|
D|-11-9---------------------------9-11---------------------------11-9-|
A|-9--7-7-7-7-7-7-7-7-7-7-7-7-7-7-7-9--9-9-9-9-9-9-9-9-9-9-9-9-9-9--7-|
E|--------------------------------------------------------------------|
-|(guitar 2:)
e|--------------------------------------------------------------------|
B|--------------------------------------------------------------------|
G|-11-9---------------------------9-11--------------------------------|
D|-11-9---------------------------9-11--------------------------------|
A|-9--7---------------------------7-9-------------------------9-7-6-7-|
E|--------------------------------------------------------------------|

e|----------------------------------------------|
B|----------------------------------------------|
G|---------------------9--9-------6---------6-6-|
D|---------------------9--9---6---6---------6-6-|
A|-7-7-7-7-7-7-7-7-7-7-7--7---6---4---------4-4-|
E|----------------------------4-----------------|
-|(guitar 2:)                                   |
e|----------------------------------------------|
B|----------------------------------------------|
G|--------------------------------6---------6-6-|
D|----------------------------6---6---------6-6-|
A|----------------------------6---4---------4-4-|
E|----------------------------4-----------------|


chorus:
e|--------------------------------------8---1210-8-6~---------------|
B|--------------------------------------x-x-x--x-x-x----------------|
G|-----6-6---6-4-3----------------------6-8-10-8-6-4~---------------|
D|-4---6-6-4-------6-4-3--------------------------------------------|
A|-4---4-4-4-------------6------------------------------------------|
E|-2-------2--------------------------------------------------------|
-|(guitar 2:)                                                       |
e|------------------------------------------------------------------|
B|------------------------------------------------------------------|
G|-11--6-6-11--------------6-6-6---6--6-6-6--6-6-6----------6-6-6-6-|
D|-11--6-6-11--------------6-6-6---6--6-6-6--6-6-6-6--6-6---6-6-6-6-|
A|-9---4-4-9---------------4-4-4---4--4-4-4--4-4-4-6--6-6---4-4-4-4-|
E|-------------------------------4-----------------4--4-4-----------|


verse 3:
e|---------------------------------------------------------------------------|
B|---------------------------------------------------------------------------|
G|-----------------------------------------------------4--4-4----------------|
D|-4-4-4-4-4-4-4-4-4-4-4-4-4-4-4-4-2-2-2-2-2-2-2-2-2-2-2--2-2--4-4-4-4-4-4-4-|
A|---------------------------------------------------------------------------|
E|---------------------------------------------------------------------------|

e|-----------------------------------------------|
B|-----------------------------------------------|
G|-----------------------------------------------|
D|-4---------------------------------------------|
A|---2-2-2-2-2-2-2-2-4--5-4--5-4--5-4--5-4-2-0---|
E|---------------------------------------------4-|


verse 4:
e|---------------------------------------------------------------------------|
B|---------------------------------------------------------------------------|
G|---------------------------------------------------------------------------|
D|-4-4-4-4-4-4-4-4-4-4-4-4-4-4-4-4-2-2-2-2-2-2-2-2-2-2-2-2-2-2-2-2-4-4-4-4-4-|
A|---------------------------------------------------------------------------|
E|---------------------------------------------------------------------------|
-| (guitar 2:)
e|-------------------|
B|-------------------|
G|-------------------|
D|-4-----------------|
A|-------------------|
E|-------------------|

e|------------------------------------------------|
B|------------------------------------------------|
G|-----------------------6--6-6--8--8-8-----------|
D|-4-4-------------------6--6-6--8--8-8-----------|
A|-------2-2-2-2-2-2-2-2-4--4-4--6--6-6--/6-4-----|
E|--------------------------------------------7-6-|


pre-chorus 3:
 | x2
e|--------------------------------------------------------------------|
B|--------------------------------------------------------------------|
G|-11-9---------------------------9-11---------------------------11-9-|
D|-11-9---------------------------9-11---------------------------11-9-|
A|-9--7-7-7-7-7-7-7-7-7-7-7-7-7-7-7-9--9-9-9-9-9-9-9-9-9-9-9-9-9-9--7-|
E|--------------------------------------------------------------------|
-| (guitar 2:)
e|--------------------------------------------------------------------|
B|--------------------------------------------------------------------|
G|-11-9---------------------------9-11---------------------------11-9-|
D|-11-9---------------------------9-11---------------------------11-9-|
A|-9--7---------------------------7-9----------------------------9--7-|
E|--------------------------------------------------------------------|

                            |
e|--------------------------|-------------------|
B|--------------------------|-------------------|
G|---------------------9--9-|-13-------6--------|
D|---------------------9--9-|-13-------6--------|
A|-7-7-7-7-7-7-7-7-7-7-7--7-|-11-------4--------|
E|--------------------------|-------------------|
-|(guitar 2:)               |                   |
e|--------------------------|-------------------|
B|--------------------------|-------------------|
G|--------------------------|----------6--------|
D|--------------------------|-6--------6--------|
A|--------------------------|-6--------4--------|
E|--------------------------|-4-----------------|


post-chorus:
e|------------------------------------------------|
B|------------------------------------------------|
G|----------6-6-6-6----------6-6-6-6-11-11--11-11-|
D|-6--6-6---6-6-6-6-6--6-6---6-6-6-6-11-11--11-11-|
A|-6--6-6---4-4-4-4-6--6-6---4-4-4-4-9--9---9--9--|
E|-4--4-4-----------4--4-4------------------------|

bridge:
e|-------------------------------|----------------------------------|
B|-------------------------------|----------------------------------|
G|-6---------------4-------------|-6---------------4-------18-------|
D|-------------------------6-----|----------------------------------|
A|---------6-------------------4-|---------6------------------------|
E|-------------------------------|----------------------------------|
-| (guitar 2:)                   |                                  |
e|-------------------------------|----------------------------------|
B|-6---------------4-------------|-6---------------4----------------|
G|-------------------------6-----|------------------------/18-------|
D|---------6-------------------4-|---------6------------------------|
A|-------------------------------|----------------------------------|
E|-------------------------------|----------------------------------|


e|-----------------------------------------------------------------|---------|
B|-----------------------------------------------------------------|---------|
G|-----------------------------------------------------------------|---------|
D|-4-4-4-4-4-4-4-4---------------------------------4-4-4-4-4-4-4-4-|-4-4-4-4-|
A|-----------------4-4-4-4-4-4-4-4-2-2-2-2-2-2-2-2-----------------|---------|
E|-----------------------------------------------------------------|---------|

e|---------------------------------------------------21^(23)21^(23)-|
B|------------------------------------------------------------------|
G|-----------------------------------------8-8-8-8-8----------------|
D|-4-4-4-4---------------------------------6-6-6-6-6----------------|
A|---------4-4-4-4-4-4-4-4-2-2-2-2-2-2-2-2--------------------------|
E|------------------------------------------------------------------|

end:
e|--------------------------------------------------------------------------|
B|--------------------------------------------------------------------------|
G|-11--10-11--10-11--10-11--10-11-10-11-10-11-10-11-10-11-10-11-10-11-10-11-|
D|--------------------------------------------------------------------------|
A|--------------------------------------------------------------------------|
E|--------------------------------------------------------------------------|
-|(guitar 2:)                                                          |
e|---------------------------------------------------------------------|
B|---------------------------------------------------------------------|
G|---------------------------------------------------------------------|
D|-------------------------------------------------------------------4-|
A|-------------------------------------------------------------------4-|
E|-2--1-2--1-2--1-2--1-2-1-2-1-2-1-2-1-2-1-2-1-2-1-2-2---2---2---2---2-|

e|---------------------------|
B|---------11--------11------|
G|-10-11--------11--------11-|
D|---------------------------|
A|---------------------------|
E|---------------------------|

Order:
verse 1
verse 2
pre-chorus
pre-chorus 2
chorus
verse 3
verse 4
pre-chorus
pre-chorus 3
chorus x2
post-chorus
bridge
chorus x2
chorus x1 (with the brass in the beginning)
post-chorus
end


| /  slide up
| \  slide down
| h  hammer-on
| p  pull-off
| ~  vibrato
| +  harmonic
| x  Mute note





Comments


Popular Weird Al Yankovic tabs & chords
Hardware Store Chords
Saga Begins 1 Chords
Since You've Been Gone Chords
Tmz Chords
Eat It 1 Tabs
Night Santa Went Crazy Tabs
Callin In Sick Ukulele
Ebay Ukulele
Polka Face Ukulele
Yoda Ukulele


Song lyrics



↑ Back to top | Tablatures and chords are parodies/interpretations of the original songs. You may use it for private study, scholarship, research or language learning purposes only
© 2014 AZChords.com Contact us | Privacy policy | DMCA | Add/correct tabs | Request tabs | Top 50 tabs