>
 >
Spam

Spam Guitar Tabs

Weird Al Yankovic - Spam chords, tabs, tablatures, lyrics

Guitar lessons | Add/correct | Request | Top 50 tabs Artists:  A B C D E F G H I J K L M N O P Q R S T U V W X Y Z 0-9

Spam Guitar Tabs – Weird Al Yankovic

CD, Sheet music, Poster

Do you like Spam? Share with your friends now
Tabs
Hi guys this is my fist tab :), and i thought i had to tab this song, i just 
worked it out, and it sounds great if you play it correct!

This is a fun song to play, sounds good too





Intro: Keyboard arranged for guitar      Fill at the end of 2nd time:
e|---12--12------------------------------------------------------|
B|-12--12--12--14-----16--16-----14----*-------------------------|
G|-----------14--14/16--16--16\14--14\---------2b4---------------|
D|---------------------------------------------------------------|
A|-------------------------------------*-------------------------|
E|---------------------------------------------------------------|

Chorus  Gtr 1
e|---------------------------------------------------------------|
B|---------------------------------------------------------------|*
G|---------------------------------------------------------------|
D|--------2--4--4--2--2-2------------2--4--4--4--4-4-------------|
A|-2--2-2-0--2--2--0--0-0-----2--2-2-0--2--2--2--2-2-------------|*
E|-0--0-0---------------------0--0-0-----------------------------|

Gtr 2
e|-----------------0-0-0-----------------------------------------|
B|-----------------5-4-0-----------------------------------------|*
G|---------------------------------------------------------------|
D|--------2--4--4------------------------------------------------|
A|-2--2-2-0--2--2------------------------------------------------|*
E|-0--0-0--------------------------------------------------------|

Verse 
e|---------------------------------------------------------------|
B|----0----0-------------0----0----------------------------------|*
G|---------------------------------------------------------------|
D|--9----7---6-6-5-4---9----7------------------------------------|
A|-7----5----4-4-3-2--7----5----5-5-7-9--------------------------|*
E|------------------------------3-3-5-7--------------------------|

Here we go guys solo time!!

e|-------------------------------------------------3-3-----------|
B|-3p0-5p0-3p0-5p0-3-0-0-0-0-0-------3-5-3h5-3-5-3-3-3-5-3h5-3---|
G|-----------------------------4-4-4---------------------------4-|
D|---------------------------------------------------------------|
A|---------------------------------------------------------------|
E|---------------------------------------------------------------|

e|---------------------------------------------------------------|
B|-3h5-3h5-3---------3-5-5/8-7-8-8b10-8b10-8b10-8b10r8-7-5-------|
G|-----------4-2h4-4---------------------------------------------|
D|---------------------------------------------------------------|
A|---------------------------------------------------------------|
E|---------------------------------------------------------------|

e|---------------------------------------------------------------|
B|-5h7p5---5-5p0-0-0-3p0-5p0-3p0-0-0-3p0-5p0-3p0-0-0-3h5-3h5-3---|
G|-------7-----------------------------------------------------4-|
D|---------------------------------------------------------------|
A|---------------------------------------------------------------|
E|---------------------------------------------------------------|
 
Congrats!! Fast one to play!! but sounds awesome,i think its with a wah wah
e|---------------------------------------------------------------|
B|-3---3/5~~-----------------------------------------------------|
G|---4-----------------------------------------------------------|
D|---------------------------------------------------------------|
A|---------------------------------------------------------------|
E|---------------------------------------------------------------|

Then back into verse,then chorus, Then End with E5 power chord!
e|---------------------------------------------------------------|
B|---------------------------------------------------------------|
G|---------------------------------------------------------------|
D|---------------------------------------------------------------|
A|-2~------------------------------------------------------------|
E|-0~------------------------------------------------------------|

Well done, that is Spam by Weird Al Yankovic


Thanks again! :)

| /  slide up
| \  slide down
| h  hammer-on
| p  pull-off
| ~  vibrato
| +  harmonic
| x  Mute note
  * Repeat





Comments


Popular Weird Al Yankovic tabs & chords
Bedrock Anthem Bass Tabs
Callin' In Sick Chords
Hardware Store Chords
One More Minute 1 Chords
Polka Face Chords
Your Pitiful Chords
Smells Like Nirvana 2 Tabs
Thats Your Horoscope For To Day Tabs
Achy Breaky Song Ukulele
Virus Alert Ukulele


Song lyrics



↑ Back to top | Tablatures and chords are parodies/interpretations of the original songs. You may use it for private study, scholarship, research or language learning purposes only
© 2014 AZChords.com Contact us | Privacy policy | DMCA | Add/correct tabs | Request tabs | Top 50 tabs