» » »

Skipper Dan Tabs (ver.1)

Artists:  A B C D E F G H I J K L M N O P Q R S T U V W X Y Z # 

Skipper Dan Tabs (ver.1)

Weird Al Yankovic
Rating:
0/5 (0 votes)

Hard to play? Try these video lessons and learn fast.
                "Skipper Dan" by Weird Al Yankovic

I'll admit its not exact, but c'mon! None of these tabs really are. I'm showing you how 
to play it cool and fun. But its never going to be exact.

*sorry, I'm too lazy to post the lyrics*

Intro:
E |----------/b14-12-| | *It
B |------------------| | Really
G |------------------| | Can't
D |------------------| | Be
A |--/4-2------------| | More
E |-0----3-0---------| | Simple*
*You can also play the intro throughout the verses, but its pretty difficult*

Verses: *YAY POWER CHORDS*
E |-X----X----X----X----X----X--- |
B |-X----X----X----X----X----X--- |
G |-9----X----9----X----9----X--- |
D |-9----7----9----7----9----7--- |
A |-7----7----7----7----7----7--- |
E |-7----5----7----5----7----5--- |
    E    A    E    A    E    A
End of Verse Riff: *Something fun I added in"
E |-X----X----X----X--- |
B |-X----X----X----X--- |
G |-9----7----X----X--- |      X2
D |-9----7----7----9--- |
A |-7----5----7----9--- |
E |-7----5----5----7--- |
    E    D    A    B
Chorus: "I'm a tour guide on a...."
E |-X----X----X----X----X----X----X--- |
B |-X----X----X----X----X----X----X--- |
G |-6----4----X----9----X----9----4--- |     X2
D |-6----4----7----9----7----9----4--- |
A |-4----2----7----7----7----7----2--- |
E |-4----2----5----7----5----7----2--- |
    C#m  B    A    E    A    A    B

There You Go! Have Fun!
            
Hard to play? Try these video lessons and learn fast. | Correct




comments powered by Disqus
↑ Back to top | Tablatures and chords are parodies/interpretations of the original songs. You may use it for private study, scholarship, research or language learning purposes only