» » »

Weird Al Yankovic, Gump Tabs (ver.1)

Artists:  A B C D E F G H I J K L M N O P Q R S T U V W X Y Z # 

Gump Tabs (ver.1)

Weird Al Yankovic Tabs
Rating:
1/5 (5 votes)
Gump lessons Tabs too difficult? Try these video lessons and learn fast
                Standard

Chorus
e------------------------------|
B------------------------------|
G------------------------------|
D-46-46-46-----------4b-4444444|bend up and pick the note bk down
A-24-24-24-3/(4)4-444----------|
E----------1/(2)2-222----------|

Verse
e---------------------------------|
B---------------------------------|
G---------------------------------|
D---------------------------------|
A-444444444444444422222222--------|
E-------------------------00000000|

Riff A i guess...
e--|-------------------------------|--------------------------------|
B--|-------------------------------|--------------------------------|
G--|-------------------------------|--------------------------------|
D--|-------------234-4--------2h42-|-------------234-4--------2h42h4|
A-2|4442444244424------012-2-4----2|4442444244424------012-2-4------|
E--|-------------------------------|--------------------------------|

e-------------------------------|------------------------------|
B-------------------------------|------------------------------|
G-------------------------------|------------------------------|
D--------------234-4-------2h42-|-------------------------2h42-|
A-4442444244424-----012-2-4----2|4442444244424012-----2--4----2|
E-------------------------------|----------------0-02---0------|

Note
h-hammer on
b-bend
/( )-slide
Lump is played w/a 3 string guitar
bt this is fer a regular guitar
            

comments powered by Disqus
↑ Back to top | Weird Al Yankovic Tabs for Gump. Lyrics for acoustic guitar and electric guitar. Tablatures and chords are parodies/interpretations of the original songs. You may use it for private study, scholarship, research or language learning purposes only