» » »

Weird Al Yankovic, Cnr Tabs (ver.2)

Artists:  A B C D E F G H I J K L M N O P Q R S T U V W X Y Z # 

Cnr Tabs (ver.2)

Weird Al Yankovic Tabs
Rating:
5/5 (5 votes)
Hard to play? Try these video lessons and learn fast.
                -----------------------------------------------------------------------------
                             SONG NAME - Band Name
-----------------------------------------------------------------------------

Tuning: Standard

Greetings. This is my first tab. I hope you enjoy it. 

Anyway, I was compelled to make this tab because the current tab that resides
on here is in drop Db, and I believe it can be played in Standard. (However,
bear in mind that I actually learned tabbed this out using my acoustic). The
note locations aren't really to scale.. but it's easy to figure out the 
rhythm by listening to the song. Additional notes per section are listed in 
their respective sections.

Intro:
There is a really high, heavily-distorted note after the first B chord. I 
believe it is -19- but I'm not sure enough to put it in the tab.

                                 A    D    B
e|-------------|---------------|-5--x-5--x-7--|
B|-------------|---------------|-5--x-7--x-7--|
G|-----8---9p8-|-----6---7p6---|-6--x-7--x-8--|
D|--9----9-----|--7----7-----7-|-7--x-7--x-9--|
A|-------------|---------------|-7--x-5--x-9--|
E|-------------|---------------|-5--x-5--x-7--|

   B  D  A A A/B             B
e|-7--5--5-5-5/7-|-----------7--|--------------|
B|-7--7--5-5-5/7-|-----------7--|--------------|
G|-8--7--6-6-6/8-|-----------8--|--------------|
D|-9--7--7-7-7/9-|--------0--9--|--------------|     x2
A|-9--5--7-7-7/9-|--5--------9--|---7-8-7-5----|
E|-7--5--5-5-5/7-|----7-5----7--|--------------|

Verse:

    B                   B                   B   B D   D A
e|--7--|-------------|--7--|-------------|--7-x-7-5-x-5-5--|
B|--7--|-------------|--7--|-------------|--7-x-7-7-x-7-5--|
G|--8--|-------------|--8--|-------------|--8-x-8-7-x-7-6--|
D|--9--|-----------0-|--9--|-------------|--9-x-9-7-x-7-7--|
A|--9--|-------------|--9--|---7-8-7-5-0-|--9-x-9-5-x-5-7--|
E|--7--|---0-3-5-7---|--7--|-------------|--7-x-7-5-x-5-5--|

               B   B D   D A   A/B      E  D  B
e|----------|--7-x-7-5-x-5-5-x-5/7-x-|--7--5--7------|
B|----------|--7-x-7-7-x-7-5-x-5/7-x-|--9--7--7------|
G|----------|--8-x-8-7-x-7-6-x-6/8-x-|--9--7--8------|
D|--------0-|--9-x-9-7-x-7-7-x-7/9-x-|--9--7--9------|
A|----------|--9-x-9-5-x-5-7-x-7/9-x-|--7--5--9------|
E|--0h3-0---|--7-x-7-5-x-5-5-x-5/7-x-|--7--5--7------|

Chorus:

    B  B  B B\A A A   D  D D A A/B B B
e|--7--7--7-7\5-5-5-|-5--5-5-5-5/7-7-7--|
B|--7--7--7-7\5-5-5-|-7--7-7-5-5/7-7-7--|
G|--8--8--8-8\6-6-6-|-7--7-7-6-6/8-8-8--|   x2
D|--9--9--9-9\7-7-7-|-7--7-7-7-7/9-9-9--|
A|--9--9--9-9\7-7-7-|-5--5-5-7-7/9-9-9--|
E|--7--7--7-7\5-5-5-|-5--5-5-5-5/7-7-7--|

Verse:

    B                   B                   B   B D   D A
e|--7--|-------------|--7--|-------------|--7-x-7-5-x-5-5--|
B|--7--|-------------|--7--|-------------|--7-x-7-7-x-7-5--|
G|--8--|-------------|--8--|-------------|--8-x-8-7-x-7-6--|
D|--9--|-----------0-|--9--|-------------|--9-x-9-7-x-7-7--|
A|--9--|-------------|--9--|---7-8-7-5-0-|--9-x-9-5-x-5-7--|
E|--7--|---0-3-5-7---|--7--|-------------|--7-x-7-5-x-5-5--|

               B   B D   D A   A/B      E  D  B
e|----------|--7-x-7-5-x-5-5-x-5/7-x-|--7--5--7------|
B|----------|--7-x-7-7-x-7-5-x-5/7-x-|--9--7--7------|
G|----------|--8-x-8-7-x-7-6-x-6/8-x-|--9--7--8------|
D|--------0-|--9-x-9-7-x-7-7-x-7/9-x-|--9--7--9------|
A|----------|--9-x-9-5-x-5-7-x-7/9-x-|--7--5--9------|
E|--0h3-0---|--7-x-7-5-x-5-5-x-5/7-x-|--7--5--7------|


Chorus:

    B  B  B B\A A A   D  D D A A/B B B
e|--7--7--7-7\5-5-5-|-5--5-5-5-5/7-7-7--|
B|--7--7--7-7\5-5-5-|-7--7-7-5-5/7-7-7--|
G|--8--8--8-8\6-6-6-|-7--7-7-6-6/8-8-8--|   x2
D|--9--9--9-9\7-7-7-|-7--7-7-7-7/9-9-9--|
A|--9--9--9-9\7-7-7-|-5--5-5-7-7/9-9-9--|
E|--7--7--7-7\5-5-5-|-5--5-5-5-5/7-7-7--|

Bridge:

    E   E   E   E     D   D   D   D
e|--7-x-7-x-7-x-7-x-|-5-x-5-x-5-x-5-x--|
B|--9-x-9-x-9-x-9-x-|-7-x-7-x-7-x-7-x--|
G|--9-x-9-x-9-x-9-x-|-7-x-7-x-7-x-7-x--|
D|--9-x-9-x-9-x-9-x-|-7-x-7-x-7-x-7-x--|
A|--7-x-7-x-7-x-7-x-|-5-x-5-x-5-x-5-x--|
E|--7-x-7-x-7-x-7-x-|-5-x-5-x-5-x-5-x--|

      B B  A A/B B B     BBB A A/B B B
e|--x-7-7--5-5/7-7-7-|-x-777-5-5/7-7-7--|
B|--x-7-7--5-5/7-7-7-|-x-777-5-5/7-7-7--|
G|--x-8-8--6-6/8-8-8-|-x-888-6-6/8-8-8--|
D|--x-9-9--7-7/9-9-9-|-x-999-7-7/9-9-9--|
A|--x-9-9--7-7/9-9-9-|-x-999-7-7/9-9-9--|
E|--x-7-7--5-5/7-7-7-|-x-777-5-5/7-7-7--|

    E   E   E   E     D   D   D   D  
e|--7-x-7-x-7-x-7-x-|-5-x-5-x-5-x-5-x--|----------------|--------------|
B|--9-x-9-x-9-x-9-x-|-7-x-7-x-7-x-7-x--|----------------|--------------|
G|--9-x-9-x-9-x-9-x-|-7-x-7-x-7-x-7-x--|----------------|--------------|
D|--9-x-9-x-9-x-9-x-|-7-x-7-x-7-x-7-x--|----------------|--------------|
A|--7-x-7-x-7-x-7-x-|-5-x-5-x-5-x-5-x--|----------------|--------------|
E|--7-x-7-x-7-x-7-x-|-5-x-5-x-5-x-5-x--|--/14--12--9--7-|--6--4--2--0--|

Verse (alternate):

    B                 B
e|--7--|-----------|--7--|-----------|
B|--7--|-----------|--7--|-----------|
G|--8--|-----------|--8--|-----------|
D|--9--|--------0--|--9--|--------0--|
A|--9--|-----------|--9--|-----------|
E|--7--|--0h3-0----|--7--|--0h3-0----|


    B   B D   D A              B  D  A A A A
e|--7-x-7-5-x-5-5--|---------|-7--5--5-5-5-5---|
B|--7-x-7-7-x-7-5--|---------|-7--7--5-5-5-5---|
G|--8-x-8-7-x-7-6--|---------|-8--7--6-6-6-6---|
D|--9-x-9-7-x-7-7--|-------0-|-9--7--7-7-7-7---|
A|--9-x-9-5-x-5-7--|---------|-9--5--7-7-7-7---|
E|--7-x-7-5-x-5-5--|-0h3-0---|-7--5--5-5-5-5---|

Chorus:

    B  B  B B\A A A   D  D D A A/B B B
e|--7--7--7-7\5-5-5-|-5--5-5-5-5/7-7-7--|
B|--7--7--7-7\5-5-5-|-7--7-7-5-5/7-7-7--|
G|--8--8--8-8\6-6-6-|-7--7-7-6-6/8-8-8--|   x4
D|--9--9--9-9\7-7-7-|-7--7-7-7-7/9-9-9--|
A|--9--9--9-9\7-7-7-|-5--5-5-7-7/9-9-9--|
E|--7--7--7-7\5-5-5-|-5--5-5-5-5/7-7-7--|

End:

    D A B
e|--5x5x7--|
B|--7x5x7--|
G|--7x6x8--|
D|--7x7x9--|
A|--5x7x9--|
E|--5x5x7--|


************************************

| /   slide up
| \   slide down
| h   hammer-on
| p   pull-off
| ~   vibrato
| +   harmonic
| x   Mute note
| b   Bend
| pb  Pre-bend
| br  Bend release
| pbr Pre-bend release
| brb Bend release bend

************************************
            

comments powered by Disqus
↑ Back to top | Weird Al Yankovic Tabs for Cnr. Lyrics for acoustic guitar and electric guitar. Tablatures and chords are parodies/interpretations of the original songs. You may use it for private study, scholarship, research or language learning purposes only