>
 >
Close But No Cigar

Close But No Cigar Guitar Tabs

Weird Al Yankovic - Close But No Cigar chords, tabs, tablatures, lyrics

Guitar lessons | Add/correct | Request | Top 50 tabs Artists:  A B C D E F G H I J K L M N O P Q R S T U V W X Y Z 0-9

Close But No Cigar Guitar Tabs – Weird Al Yankovic

CD, Sheet music, Poster

Do you like Close But No Cigar? Share with your friends now
Bass TabsTabs
-------------------------------------------------------------------------------
-------------------------------------------------------------------------------

Tuning: e B G D A E

intro:
e|-2--2-2--2-3-|-2--2-2--2-3-|-2--2-2--2-3-|-2-|
B|-3--3-3--3-0-|-3--3-3--2-0-|-3--3-3--3-0-|-3-|
G|-2--2-2--2-0-|-2--2-2--2-0-|-2--2-2--2-0-|-2-|
D|-0--0-0--0-0-|-0--0-0--0-0-|-0--0-0--0-0-|-0-|
A|-----------2-|-----------2-|-----------2-|---|
E|-----------3-|-----------3-|-----------3-|---|


verse part 1:
e|------------------------|
B|-------------8--8-x-8-8-|
G|-------------7--7-x-7-7-|
D|------------------------|
A|-(bass fill)------------|
E|------------------------|

verse part 2:
e|--------------------|
B|---------8--8-x-8-8-|
G|-7--7----7--7-x-7-7-|
D|-7--7---------------|
A|--------------------|
E|--------------------|

verse part 3:
e|-------------------------|
B|-------------------------|
G|-------------------------|
D|---7-------7-------------|
A|---7-------7---5-5-5-5-5-|
E|-3-5-------5-3-3-3-3-3-3-|

chorus:
e|------------------------------------|-------------------|---------|
B|-7-7---7-8-8--8-5-5--5-5------------|-7-7---7-0-7-8-8-8-|-8-8-0-7-|
G|-7-7---7-7-7--7-5-5--5-5-7--7--77-7-|-7-7---7-0-7-7-7-7-|-7-7-0-7-|
D|-7-7---7-----------------5--5--55-5-|-7-7---7-0-7-------|-----0-7-|
A|------------------------------------|-------------------|---------|
E|------------------------------------|-------------------|---------|
                                       ^^repeat as needed^

bridge:
e|-------------------------------------------------------------|
B|-----------------------------8---------------6---6---6---8---|
G|-7---7---7---9---5---5---5---7---7---7---7---7---7---7---7---|
D|---7---7---7---7---5---5---5--10--10--10--10-----------------|
A|-------------------------------------------------------------|
E|-------------------------------------------------------------|

e|-10-------10-------10-------10-------10-------10-------10-------10--------|
B|-10-------10-------10-------10-------10-------10-------10-------10--------|
G|---12^(14)--12^(14)--12^(14)--12^(14)--12^(14)--12^(14)--12^(14)--12^(14)-|
D|--------------------------------------------------------------------------|
A|--------------------------------------------------------------------------|
E|--------------------------------------------------------------------------|

e|---------------------------------------------------|
B|-10-10-10-10-10-10-10-10-10-10-10-10-10-10-10-10---|
G|-9--9--9--9--9--9--9--9--9--9--9--9--9--9--9--9----|
D|-------------------------------------------------0-|
A|---------------------------------------------------|
E|---------------------------------------------------|

Order:

intro x1
verse part 1 x4
verse part 2 x6
verse part 3 x1
chorus x1
verse part 1 x4
verse part 2 x6
verse part 3 x1
chorus x1
bridge x1
sax solo x1
verse part 2 x10
verse part 3 x1
chorus x1

| /  slide up
| \  slide down
| h  hammer-on
| p  pull-off
| ~  vibrato
| +  harmonic
| x  Mute note
===============================================================================





Comments


Popular Weird Al Yankovic tabs & chords
Do I Creep You Out Chords
Polka Face Chords
Skipper Dan 1 Chords
You Dont Love Me Anymore 2 Chords
Albuquerque Tabs
Dirty Deeds Done With Sheep Tabs
Germs Tabs
Dont Download This Song Ukulele
Why Does This Always Happen To Me Ukulele
Yoda Ukulele


Song lyrics



↑ Back to top | Tablatures and chords are parodies/interpretations of the original songs. You may use it for private study, scholarship, research or language learning purposes only
© 2014 AZChords.com Contact us | Privacy policy | DMCA | Add/correct tabs | Request tabs | Top 50 tabs