» » »

Weird Al Yankovic, Canadian Idiot Tabs (ver.1)

Artists:  A B C D E F G H I J K L M N O P Q R S T U V W X Y Z # 

Canadian Idiot Tabs (ver.1)

Weird Al Yankovic Tabs
Rating:
4/5 (3 votes)
Hard to play? Try these video lessons and learn fast.
                Canadian Idiot
---------------

song-  Canadain Idiot (parody of American Idiot)
band-  Weird Al (originally from Green Day)
album- Straight Outta Lynwood
year-  2006

standard tuning (E A D G B E)


Intro  gtr 1                      gtr 2

|-----------------------------|--------------------------0--|
|-----------------------------|--------------------------0--|
|-----------------------------|------6--6-6--------6--------|
|------6--6-6--------6--------|6-6-6-6--6-6--4--4--6--6-----|
|6-6-6-4--4-4--4--4--4--6--4--|6-6-6-4--4-4--4--4--4--6-----|
|4-4-4---------2--2-----4--2--|4-4-4---------2--2-----4-----|

|-----------------------------|--------------------------0--|
|-----------------------------|--------------------------0--|
|------6--6-6--------6--------|------6--6-6--------6--------|
|6-6-6-6--6-6--4--4--6--6--4--|6-6-6-6--6-6--4--4--6--6-----|
|6-6-6-4--4-4--4--4--4--6--4--|6-6-6-4--4-4--4--4--4--6-----|
|4-4-4---------2--2-----4--2--|4-4-4---------2--2-----4-----|


Verse 1

|--------------------------|0-------------------------------|
|--------------------------|0-------------------------------|
|--------------------------|0--------6--6-6--------6--------|
|--------------------------|---6-6-6-6--6-6--4--4--6--6--4--|
|--------------------------|---6-6-6-4--4-4--4--4--4--6--4--|
|--------------------------|---4-4-4---------2--2-----4--2--|

|--------------------------|0----------------------------0--|
|--------------------------|0----------------------------0--|
|--------------------------|0--------6--6-6--------6--------|
|--------------------------|---6-6-6-6--6-6--4--4--6--6-----|
|--------------------------|---6-6-6-4--4-4--4--4--4--6-----|
|--------------------------|---4-4-4---------2--2-----4-----|

|--------------------------|0-------------------------------|
|--------------------------|0-------------------------------|
|--------------------------|0--------6--6-6--------6--------|
|--------------------------|---6-6-6-6--6-6--4--4--6--6--4--|
|--------------------------|---6-6-6-4--4-4--4--4--4--6--4--|
|--------------------------|---4-4-4---------2--2-----4--2--|

|--------------------------|0----------------------------------|
|--------------------------|0----------------------------------|
|--------------------------|0--------6--6-6--------6-----------|
|--------------------------|---6-6-6-6--6-6--4--4--6--6--------|
|--------------------------|---6-6-6-4--4-4--4--4--4--6--------|
|--------------------------|---4-4-4---------2--2-----4---12\--|

Chorus 1

|------------------------------|------------------------------|
|------------------------------|------------------------------|
|6-6-6-6-6-6-6-6-6-6-6-6-6-6-6-|------------------------------|
|6-6-6-6-6-6-6-6-6-6-6-6-6-6-6-|6-6-6-6-6-6-6-6-6-6-6-6-6-6-6-|
|4-4-4-4-4-4-4-4-4-4-4-4-4-4-4-|6-6-6-6-6-6-6-6-6-6-6-6-6-6-6-|
|------------------------------|4-4-4-4-4-4-4-4-4-4-4-4-4-4-4-|

|------------------------------|---------------------------------|
|------------------------------|---------------------------------|
|8-8-8-8-8-8-8-8-8-8-8-8-8-8-8-|---------------------------------|
|8-8-8-8-8-8-8-8-8-8-8-8-8-8-8-|6-6-6-6-6-6-6--6--6--6-6-6-6-6-6-|
|6-6-6-6-6-6-6-6-6-6-6-6-6-6-6-|6-6-6-6-6-6-6--6--6--6-6-6-6-6-6-|
|------------------------------|4-4-4-4-4-4-4--4--4--4-4-4-4-4-4-|

|------------------------------|------------------------------|
|------------------------------|------------------------------|
|6-6-6-6-6-6-6-6-6-6-6-6-6-6-6-|------------------------------|
|6-6-6-6-6-6-6-6-6-6-6-6-6-6-6-|6-6-6-6-6-6-6-6-6-6-6-6-6-6-6-|
|4-4-4-4-4-4-4-4-4-4-4-4-4-4-4-|6-6-6-6-6-6-6-6-6-6-6-6-6-6-6-|
|------------------------------|4-4-4-4-4-4-4-4-4-4-4-4-4-4-4-|

|------------------------------|
|------------------------------|
|8-8-8-8-8-8-8-8-8-8-8-8-8-8-8-|
|8-8-8-8-8-8-8-8-8-8-8-8-8-8-8-|
|6-6-6-6-6-6-6-6-6-6-6-6-6-6-6-|
|------------------------------|


Interlude

|--------------------------|0-------------------------------|
|--------------------------|0-------------------------------|
|--------------------------|0--------6--6-6--------6--------|
|--------------------------|---6-6-6-6--6-6--4--4--6--6--4--|
|--------------------------|---6-6-6-4--4-4--4--4--4--6--4--|
|--------------------------|---4-4-4---------2--2-----4--2--|

|--------------------------0--|
|--------------------------0--|
|------6--6-6--------6--------|
|6-6-6-6--6-6--4--4--6--6-----|
|6-6-6-4--4-4--4--4--4--6-----|
|4-4-4---------2--2-----4-----|

Verse 2

|--------------------------|0-------------------------------|
|--------------------------|0-------------------------------|
|--------------------------|0--------6--6-6--------6--------|
|--------------------------|---6-6-6-6--6-6--4--4--6--6--4--|
|--------------------------|---6-6-6-4--4-4--4--4--4--6--4--|
|--------------------------|---4-4-4---------2--2-----4--2--|

|--------------------------|0----------------------------0--|
|--------------------------|0----------------------------0--|
|--------------------------|0--------6--6-6--------6--------|
|--------------------------|---6-6-6-6--6-6--4--4--6--6-----|
|--------------------------|---6-6-6-4--4-4--4--4--4--6-----|
|--------------------------|---4-4-4---------2--2-----4-----|

|--------------------------|0-------------------------------|
|--------------------------|0-------------------------------|
|--------------------------|0--------6--6-6--------6--------|
|--------------------------|---6-6-6-6--6-6--4--4--6--6--4--|
|--------------------------|---6-6-6-4--4-4--4--4--4--6--4--|
|--------------------------|---4-4-4---------2--2-----4--2--|

|--------------------------|0----------------------------------|
|--------------------------|0----------------------------------|
|--------------------------|0--------6--6-6--------6-----------|
|--------------------------|---6-6-6-6--6-6--4--4--6--6--------|
|--------------------------|---6-6-6-4--4-4--4--4--4--6--------|
|--------------------------|---4-4-4---------2--2-----4---12\--|


Chorus 2

|------------------------------|------------------------------|
|------------------------------|------------------------------|
|6-6-6-6-6-6-6-6-6-6-6-6-6-6-6-|------------------------------|
|6-6-6-6-6-6-6-6-6-6-6-6-6-6-6-|6-6-6-6-6-6-6-6-6-6-6-6-6-6-6-|
|4-4-4-4-4-4-4-4-4-4-4-4-4-4-4-|6-6-6-6-6-6-6-6-6-6-6-6-6-6-6-|
|------------------------------|4-4-4-4-4-4-4-4-4-4-4-4-4-4-4-|

|------------------------------|---------------------------------|
|------------------------------|---------------------------------|
|8-8-8-8-8-8-8-8-8-8-8-8-8-8-8-|---------------------------------|
|8-8-8-8-8-8-8-8-8-8-8-8-8-8-8-|6-6-6-6-6-6-6--6--6--6-6-6-6-6-6-|
|6-6-6-6-6-6-6-6-6-6-6-6-6-6-6-|6-6-6-6-6-6-6--6--6--6-6-6-6-6-6-|
|------------------------------|4-4-4-4-4-4-4--4--4--4-4-4-4-4-4-|

|------------------------------|------------------------------|
|------------------------------|------------------------------|
|6-6-6-6-6-6-6-6-6-6-6-6-6-6-6-|------------------------------|
|6-6-6-6-6-6-6-6-6-6-6-6-6-6-6-|6-6-6-6-6-6-6-6-6-6-6-6-6-6-6-|
|4-4-4-4-4-4-4-4-4-4-4-4-4-4-4-|6-6-6-6-6-6-6-6-6-6-6-6-6-6-6-|
|------------------------------|4-4-4-4-4-4-4-4-4-4-4-4-4-4-4-|

|------------------------------|
|------------------------------|
|8-8-8-8-8-8-8-8-8-8-8-8-8-8-8-|
|8-8-8-8-8-8-8-8-8-8-8-8-8-8-8-|
|6-6-6-6-6-6-6-6-6-6-6-6-6-6-6-|
|------------------------------|


Bridge    gtr 1

 /-------------5x------------\

|--------------------------0--|----------------|
|--------------------------0--|----------------|
|-----------------------------|----------------|
|------6--6-6--------6--------|----------------|
|6-6-6-4--4-4--4--4--4--6-----|----------------|
|4-4-4---------2--2-----4-----|----------------|


gtr 2

                               /------5x------\

|-----------------------------|----------------|
|9----------------------------|----------------|
|-----------------------------|----------------|
|-----------------------------|----------------|
|-----------------------------|----------------|
|-----------------------------|----------------|


Chorus 3    gtr 2

|------------------------------|------------------------------|
|------------------------------|------------------------------|
|6-6-6-6-6-6-6-6-6-6-6-6-6-6-6-|------------------------------|
|6-6-6-6-6-6-6-6-6-6-6-6-6-6-6-|6-6-6-6-6-6-6-6-6-6-6-6-6-6-6-|
|4-4-4-4-4-4-4-4-4-4-4-4-4-4-4-|6-6-6-6-6-6-6-6-6-6-6-6-6-6-6-|
|------------------------------|4-4-4-4-4-4-4-4-4-4-4-4-4-4-4-|

|------------------------------|---------------------------------|
|------------------------------|---------------------------------|
|8-8-8-8-8-8-8-8-8-8-8-8-8-8-8-|---------------------------------|
|8-8-8-8-8-8-8-8-8-8-8-8-8-8-8-|6-6-6-6-6-6-6--6--6--6-6-6-6-6-6-|
|6-6-6-6-6-6-6-6-6-6-6-6-6-6-6-|6-6-6-6-6-6-6--6--6--6-6-6-6-6-6-|
|------------------------------|4-4-4-4-4-4-4--4--4--4-4-4-4-4-4-|

|------------------------------|------------------------------|
|------------------------------|------------------------------|
|6-6-6-6-6-6-6-6-6-6-6-6-6-6-6-|------------------------------|
|6-6-6-6-6-6-6-6-6-6-6-6-6-6-6-|6-6-6-6-6-6-6-6-6-6-6-6-6-6-6-|
|4-4-4-4-4-4-4-4-4-4-4-4-4-4-4-|6-6-6-6-6-6-6-6-6-6-6-6-6-6-6-|
|------------------------------|4-4-4-4-4-4-4-4-4-4-4-4-4-4-4-|

|------------------------------|
|------------------------------|
|8-8-8-8-8-8-8-8-8-8-8-8-8-8-8-|
|8-8-8-8-8-8-8-8-8-8-8-8-8-8-8-|
|6-6-6-6-6-6-6-6-6-6-6-6-6-6-6-|
|------------------------------|


Outro    gtr 1                  gtr 2

|-----------------------------|-----------------------------|
|-----------------------------|-----------------------------|
|-----------------------------|------6--6-6--------6--------|
|------6--6-6--------6--------|6-6-6-6--6-6--4--4--6--6--4--|
|6-6-6-4--4-4--4--4--4--6--4--|6-6-6-4--4-4--4--4--4--6--4--|
|4-4-4---------2--2-----4--2--|4-4-4---------2--2-----4--2--|

|--------------------------0--|-----------------------------|
|--------------------------0--|-----------------------------|
|------6--6-6--------6--------|------6--6-6--------6--------|
|6-6-6-6--6-6--4--4--6--6-----|6-6-6-6--6-6--4--4--6--6--4--|
|6-6-6-4--4-4--4--4--4--6-----|6-6-6-4--4-4--4--4--4--6--4--|
|4-4-4---------2--2-----4-----|4-4-4---------2--2-----4--2--|


gtr 1

|-----------------------------|
|-----------------------------|
|-----------------------------|
|------6--6-6-----------------|
|6-6-6-4--4-4--4--------------|
|4-4-4---------2--------------|


gtr 2

|-----------------------------|
|-----------------------------|
|--------------------6-6------|
|-----------------4--6-6-6----|
|-----------------4--4-4-6----|
|-----------------2------4----|

well there you go everyone, this is a really easy song, maybe a tad bit to fast for 
but you'll get it.
            

comments powered by Disqus
↑ Back to top | Weird Al Yankovic Tabs for Canadian Idiot. Lyrics for acoustic guitar and electric guitar. Tablatures and chords are parodies/interpretations of the original songs. You may use it for private study, scholarship, research or language learning purposes only