» » »

Bedrock Anthem Bass tabs (ver.1)

Artists:  A B C D E F G H I J K L M N O P Q R S T U V W X Y Z # 

Bedrock Anthem Bass tabs (ver.1)

Weird Al Yankovic
Rating:
0/5 (0 votes)

Hard to play? Try these video lessons and learn fast.
                The song starts out with the intro from under the bridge, then
goes into give it away
but you don't play anything in the under the bridge part, just
the give it away part, enjoy

Intro:
G-------------------------------|
D-------------------------------|
A-------------------7/12\-7/12\-|
E-------------------------------|

Verse:
G--------------12\------------|
D------/12h14-----------------|
A-0----------------x-3---0--3-|
E-----------------------------|

G--------------12\------------|
D------/12h14-----------------|
A-0--------------------x-0--3-|
E-----------------------------| x6

Chorus:
G-------------------------------|
D-------------------------------|
A-0-----------------------------|
E------3-5\------3-5\------3-5\-|

Verse:
G--------------12\------------|
D------/12h14-----------------|
A-0----------------x-3---0--3-|
E-----------------------------|

G--------------12\------------|
D------/12h14-----------------|
A-0--------------------x-0--3-|
E-----------------------------| x6

Chorus:
G-------------------------------|
D-------------------------------|
A-0-----------------------------|
E------3-5\------3-5\------3-5\-|

G-------------------------------|
D-------------------------------|
A-------------------------------|
E-------------------------------|

Guitar Solo:
G------------------------------|
D------------------------------|
A----------------10\-----------|
E-0----x-/10h12-------x-3--0-3-|

G------------------------------|
D------------------------------|
A----------------10\-----------|
E-0----x-/10h12-------x-3--0-3-| x4

5th time:
G------------------------------|
D------------------------------|
A----------------10\-----------|
E-0----x-/10h12-------x-3--0-3-|

G-----------------------------------------------|
D-----------------------------------------------|
A-----------------------------------------------|
E-0---10--0--9--0--7--0--5--0--4--0--3--0--2--0-|

Verse:
G--------------12\------------|
D------/12h14-----------------|
A-0----------------x-3---0--3-|
E-----------------------------|

G--------------12\------------|
D------/12h14-----------------|
A-0--------------------x-0--3-|
E-----------------------------| x6

G-------------------------------|
D-------------------------------|
A-------------------------------|
E-------------------------------|

Guitar Solo:
G------------------------------|
D------------------------------|
A----------------10\-----------|
E-0----x-/10h12-------x-3--0-3-|

G------------------------------|
D------------------------------|
A----------------10\-----------|
E-0----x-/10h12-------x-3--0-3-|

G------------------------------|
D------------------------------|
A----------------10\-----------|
E-0----x-/10h12-------x-3--0-3-|

G-----------------------------------------------|
D-----------------------------------------------|
A-----------------------------------------------|
E-0---10--0--9--0--7--0--5--0--4--0--3--0--2--0-|


Verse:
G--------------12\------------|
D------/12h14-----------------|
A-0----------------x-3---0--3-|
E-----------------------------|

G--------------12\------------|
D------/12h14-----------------|
A-0--------------------x-0--3-|
E-----------------------------| x6

Outro:
G--------------12\------------|
D------/12h14-----------------|
A-0----------------x-3---0--3-|
E-----------------------------|

G--------------12\------------|
D------/12h14-----------------|
A-0--------------------x-0--3-|
E-----------------------------| x11

12th time:
G--------------12\------------|
D------/12h14-----------------|
A-0----------------x-3---0--3-|
E-----------------------------|

G-------------------|
D-------------------|
A-0---------------0-|
E---3-3-3-3-3-3-3---|
bend these 3’s
            
Hard to play? Try these video lessons and learn fast. | Correct




comments powered by Disqus
↑ Back to top | Tablatures and chords are parodies/interpretations of the original songs. You may use it for private study, scholarship, research or language learning purposes only