» » »

Weezer, Your Room Tabs (ver.1)

Artists:  A B C D E F G H I J K L M N O P Q R S T U V W X Y Z # 

Your Room Tabs (ver.1)

Weezer Tabs
Rating:
0/5 (0 votes)
Your Room lessons Tabs too difficult? Try these video lessons and learn fast
                Your Room (without lyrics)

-------------------------------------------------------


Verse Riff:        
D---7--7--7---7--5------------- \
A---7--7--7--------7-6-5------- |  x3
E---5--5--5--------------8--5-- /

Bridge:
G---7--7--7--7--------------
D---7--7--7--7--5--5--5--5--
A---5--5--5--5--5--5--5--5--
E---------------3--3--3--3--


Verse Riff (x2)


Chorus Chords (in line with song):
   D  G  F#m  Bm  G  A  Bb  Bm  A  G  Em  A
e--2--3---2---2---3--5--6---7---5--3--0---5-
B--3--3---2---3---3--5--6---7---5--3--0---5-
G--2--0---2---4---0--6--7---7---6--0--0---6-
D--0--0---4---4---0--7--8---9---7--0--2---7-
A--0--2---4---2---2--7--8---9---7--2--2---7-
E--0--3---2---x---3--5--6---7---5--3--0---5-


Verse Riff (x2)


Chorus


Outro:
D--7--9--10--12--14--15-14\--15-14\--15-14\--
A--7--9--9---12--14--15-14\--15-14\--15-14\--
E--5--7--9---10--12--14-12\--14-12\--14-12\--

Verse Riff (x1)
            

comments powered by Disqus
↑ Back to top | Weezer Tabs for Your Room. Lyrics for acoustic guitar and electric guitar. Tablatures and chords are parodies/interpretations of the original songs. You may use it for private study, scholarship, research or language learning purposes only