» » »

Weezer, Troublemaker Tabs (ver.1)

Artists:  A B C D E F G H I J K L M N O P Q R S T U V W X Y Z # 

Troublemaker Tabs (ver.1)

Weezer Tabs
Rating:
0/5 (0 votes)
Troublemaker lessons Tabs too difficult? Try these video lessons and learn fast
                

This song is the opening track on their new album. It's pretty easy and 
straight forward. I think it may be in 1/2 step down tuning, since a lot of 
Weezer songs are, but this is just easier than tuning all six strings 
differently for a song this simple.

Intro/Main Riff (it's pretty much throughout the whole song)

E|------------------------------------------------|
B|------------------------------------------------|
G|----------6---6-6-----------6---6-6-------------|
D|--6--XX---6---6-6----6--X---6---6-6-------------|
A|--6--XX---4---4-4---X6--X---4---4-4--X----------|
E|--4--XX-------------X4--X------------X----------|


 "How's this for arts and crafts" (not too sure here)
E|------------------------------------------------|
B|----99--99--99--99--99--99--99--9---------------|
G|----XX--XX--XX--XX--XX--XX--XX--X---------------|
D|----66--66--66--66--66--66--66--6\--------------|
A|------------------------------------------------|
E|------------------------------------------------|


 "Marryin' a biatch..."
E|-------------------------------------------------|
B|-------------------------------------------------|
G|-------------------------------------------------|
D|---6--6--6--6--6--6--6--6--6--6--6--6--6--6--6--6|
A|-------------------------------------------------|
E|-------------------------------------------------|


 Chorus:
E|------------------------------------------------|
B|------------------------------------------------|
G|----------6---6-6-----------6---6-6-------------|
D|--6--XX---6---6-6----6--X---6---6-6-------------|
A|--6--XX---4---4-4---X6--X---4---4-4--X----------|
E|--4--XX-------------X4--X------------X----------|

 Breakdown:
E|---------------------------------|
B|---------------------------------|
G|---------------------------------|  
D|---------------------------------|  X2
A|--6-6-6-6-6-6-6-6-6-6-6-6-6-6-6-6|
E|--4-4-4-4-4-4-4-4-4-4-4-4-4-4-4-4|

E|----------------------------------|
B|----------------------------------|
G|----------------------------------|
D|--6-6-6-6-6-6-6-6-5-5-5-5-5-5-5-5-|
A|--4-4-4-4-4-4-4-4-4-4-4-4-4-4-4-4-|
E|----------------------------------|

E|---------------------------------|
B|---------------------------------|
G|---------------------------------|  
D|---------------------------------|  
A|--6-6-6-6-6-6-6-6-6-6-6-6-6-6-6-6|
E|--4-4-4-4-4-4-4-4-4-4-4-4-4-4-4-4|

E|-------------------------------------------------|
B|--9-9-9-9-9-9-9-9-9-9-9-9-9-9-9-9-9-9-9-9-9-9-9-9|
G|-------------------------------------------------|
D|-------------------------------------------------|
A|-------------------------------------------------|
E|-------------------------------------------------|

E|-------------------------------------------------------------|
B|--9-9-9-9-9-9-9-9-9-9-9-9-9-9-9-9/13-13-13-13-13-13-13-13-13\|
G|-------------------------------------------------------------|
D|-------------------------------------------------------------|
A|-------------------------------------------------------------|
E|-------------------------------------------------------------|

 Finish with:
E|------------------------------------------------|
B|------------------------------------------------|
G|----------6---6-6-----------6---6-6-------------|
D|--6--XX---6---6-6----6--X---6---6-6-------------|
A|--6--XX---4---4-4---X6--X---4---4-4--X----------|
E|--4--XX-------------X4--X------------X----------|

E|-------------|
B|-------------|
G|-------------|
D|--6\---------|
A|--6\---------|
E|--4\---------|


That's it. Pretty simple and not hard at all. I'm not to sure of the second
guitar in the breakdown so I won't tab it because I'm sure it's wrong.
            

comments powered by Disqus
↑ Back to top | Weezer Tabs for Troublemaker. Lyrics for acoustic guitar and electric guitar. Tablatures and chords are parodies/interpretations of the original songs. You may use it for private study, scholarship, research or language learning purposes only