>
 >
Trainwrecks

Trainwrecks Guitar Tabs

Weezer - Trainwrecks chords, tabs, tablatures, lyrics

Guitar lessons | Add/correct | Request | Top 50 tabs Artists:  A B C D E F G H I J K L M N O P Q R S T U V W X Y Z 0-9

Trainwrecks Guitar Tabs – Weezer

CD, Sheet music, Poster

Do you like Trainwrecks? Share with your friends now
ChordsChords v2TabsUkulele
Weezer-Traiwrecks

Verse:

Riff A Guitar 1 e 2
 "We sleep all day and rock the night"
e|----------------------------------|
b|----------------------------------|
g|-2-2-2-1-1-1-1-1-2-2-2-1-1-1-1-1--|
d|-2-2-2-2-2-2-2-2-2-2-2-2-2-2-2-2--|
a|-2-2-2-2-2-2-2-2-2-2-2-2-2-2-2-2--|
E|----------------------------------|

Riff B Guitar 1 e 2
 "We just get up to start another fight"
e|----------------------------------|
b|----------------------------------|
g|----------------------------------|
d|-7-7-7-6-6-6-6-6-7-7-7-6-6-6-6-6--|
a|-4-4-4-4-4-4-4-4-4-4-4-4-4-4-4-4--|
E|-4-4-4-4-4-4-4-4-4-4-4-4-4-4-4-4--|

Riff C Guitar 1 e 2
 We kiss and then we bite.We are Trainwrecks
e|-------------------------------------------------------------------|
b|-------------------------------------------------------------------|
g|---------------------------------2-2-2-1-1-1-1-1-2-2-2-1-1-1-1-1---|
d|-7-7-7-6-6-6-6-6-4-4-4-6-6-6-6-6-2-2-2-2-2-2-2-2-2-2-2-2-2-2-2-2---|
a|-4-4-4-4-4-4-4-4-2-2-2-2-2-2-2-2-2-2-2-2-2-2-2-2-2-2-2-2-2-2-2-2---|
E|-5-5-5-5-5-5-5-5-2-2-2-2-2-2-2-2-----------------------------------|
"...wrecks"  (00:49)
e|---------12b--12b---|
b|--------------------|
g|--------------------|
d|--------------------|
a|--------------------|
E|--------------------|

Chorus:
                "People love to tell us what to do..."
Guitar 1                                   Guitar 2
e|-4-------5-------2-------4-------|      e|----------|
b|-5-------5-------2-------4-------|      b|-10-9-5---|
g|-6-(8x)--6-(8x)--4-(8X)--4-(8x)--|      g|----------|
d|-6-------7-------4-------6-------|      d|----------|
a|-4-------7-------2-------6-------|      a|----------|
E|-4-------5-------2-------4-------|      E|----------|

Bridge:
Guitar 1 e 2             
  "Someday we'll cut our critics down to size..."
e|------|
b|------|
g|-1----|
d|-2----|
a|-2----|
E|-0----|

"And crash a Diddy party in disguise..."
e|-4----|
b|-5----|
g|-6----|
d|-6----|
a|-4----|
E|-4----|

"We fall first then we rise.We are Traaaaaaaaaaaaaaaaaaain..."
e|-5--5--5--5--5--5--5--5--2-2-2-2-2-2-2-2-2-2-2-2-2-2-2-2-|
b|-5--5--5--5--5--5--5--5--2-2-2-2-2-2-2-2-2-2-2-2-2-2-2-2-|
g|-6--6--6--6--6--6--6--6--4-4-4-4-4-4-4-4-4-4-4-4-4-4-4-4-|
d|-7--7--7--7--7--7--7--7--4-4-4-4-4-4-4-4-4-4-4-4-4-4-4-4-|
a|-7--7--7--7--7--7--7--7--2-2-2-2-2-2-2-2-2-2-2-2-2-2-2-2-|
E|-5--5--5--5--5--5--5--5--2-2-2-2-2-2-2-2-2-2-2-2-2-2-2-2-|

Outro:

Guitar 1
...wrecks..."                            "Trainwrecks"
e|----------------------------------------------------------------|
b|----------------------------------------------------------------|
g|-2-2-2-1-1-1-1-1-2-2-2-1-1-1-1-1--------------------------------|
d|-2-2-2-2-2-2-2-2-2-2-2-2-2-2-2-2-7-7-7-6-6-6-6-6-7-7-7-6-6-6-6-6|
a|-2-2-2-2-2-2-2-2-2-2-2-2-2-2-2-2-4-4-4-4-4-4-4-4-4-4-4-4-4-4-4-4|
E|---------------------------------4-4-4-4-4-4-4-4-4-4-4-4-4-4-4-4|
           "It's the story of our lives.We are Trainwrecks"
e|--------------------------------------------------|
b|--------------------------------------------------|
g|--------------------------------------------------|
d|-7-7-7-6-6-6-6-6-7-7-7-6-6-6-6-6-4-4-4-6-6-6-6-6--|
a|-4-4-4-4-4-4-4-4-4-4-4-4-4-4-4-4-2-2-2-2-2-2-2-2--|
E|-5-5-5-5-5-5-5-5-5-5-5-5-5-5-5-5-2-2-2-2-2-2-2-2--|

Guitar 2:
"...wrecks..."                
e|----------------8b-6-5b-3-1---|
b|------------------------------|
g|------------------------------|
d|------------------------------|
a|------------------------------|
E|------------------------------|

End:
"...Wrecks"
e|---
b|---
g|-1-
d|-2-
a|-2-
E|-0-

Music Information:
Verse
Riff A
Riff B
Riff C
Riff A
Riff B 
Riff C
Chorus
Verse
Riff A
Riff B
Riff C
Riff A
Riff B 
Riff C
Chorus
Bridge
Outro
End

Thank for Reading!





Comments


Popular Weezer tabs & chords
Holiday 3 Bass Tabs
The Good Life Bass Tabs
Waiting On You 1 Bass Tabs
Buddy Holly 4 Chords
Put Me Back Together 1 Chords
Hold Me Drum Tabs
Beverly Hills 2 Tabs
Pink Triangle 1 Tabs
You Gave Your Love To Me Tabs
The Girl Got Hot Ukulele


Song lyrics



↑ Back to top | Tablatures and chords are parodies/interpretations of the original songs. You may use it for private study, scholarship, research or language learning purposes only
© 2014 AZChords.com Contact us | Privacy policy | DMCA | Add/correct tabs | Request tabs | Top 50 tabs