» » »

Weezer, Tired Of Sex Tabs (ver.2)

Artists:  A B C D E F G H I J K L M N O P Q R S T U V W X Y Z # 

Tired Of Sex Tabs (ver.2)

Weezer Tabs
Rating:
0/5 (0 votes)
Tired Of Sex lessons Tabs too difficult? Try these video lessons and learn fast
                [The following text is in the "ISO-8859-1" character set]
    [Your display is set for the "US-ASCII" character set]


Bass Line: (Slide Down On The Start)
-------------------------------------------------
-------------------------------------------------
-------4--4--6--4--2-1-1--------------------
-2-2--------------------------------------------



Guitar Intro:			
-6-1-2-1h------4-----6--h4--6--1-2-1h------4-----6--7h--p6--4--6---1-2-1h-
-----4--------
--------------2----------------------------------2------------------------
-------------------2------------
----------------------------------
----------------------------------
----------------------------------
----------------------------------
I'm Tired, So Tired Of Having Sex
                                            So Tired

Guitar Chorus: F# C# D# B A# Strumming Same As The Bass Line!

Solo: I Dont Think So, I'm Not That Patient!
            
Submit corrections

comments powered by Disqus
↑ Back to top | Weezer Tabs for Tired Of Sex. Lyrics for acoustic guitar and electric guitar. Tablatures and chords are parodies/interpretations of the original songs. You may use it for private study, scholarship, research or language learning purposes only