» » »

The World Has Turned And Left Me Here Tabs (ver.3)

Artists:  A B C D E F G H I J K L M N O P Q R S T U V W X Y Z # 

The World Has Turned And Left Me Here Tabs (ver.3)

Weezer
Rating:
0/5 (0 votes)

Hard to play? Try these video lessons and learn fast.
                This is my first tab, but i know that its right.

notes: -like most weezer songs this is tuned down a 1/2 step
       -the "verse" is actually a "chorus" of sorts and vice-versa, as the 

starting "verse"(the world has turned and left me here....) is repeated 

throughout the song, and the "chorus" changes. Anyway, you'll understand what I 

mean if you listen to the song. 




Intro (acoustic): repeat as many times as necessary

E ---------|---------|---------|---------|---------|-----|
B -----0---|---------|---0-----|---0-----|---------|-0---|:
G ---0---0-|-----0---|-----0---|-----0---|---0-----|---0-|
D ---------|---4---4-|---------|-2-------|-2---2---|-----|
A ---------|-5-------|-5-----3-|-------3-|-------3-|-----|:
E -3-------|---------|---------|---------|---------|-----|


Guitar 2 intro/both guitars verse (distortion):repeat as many times as necessary
   G        Dm         Bm      Cm
E ---------|---------|---------|-----|
B ---------|---------|---------|-----|
G -------7-|-7-7-7-4-|-4-4-5-5-|-5-5-|
D -5-5-5-7-|-7-7-7-4-|-4-4-5-5-|-5-5-|
A -5-5-5-5-|-5-5-5-2-|-2-2-3-3-|-3-3-|
E -3-3-3---|---------|---------|-----|

Chorus (mild distortion): pick out within Em G Am C (something like this)
    
E ---0-0---|-------2-|-2-------|---0-0---|-------0-|-0-------|
B ---0---0-|---0---0-|---0---0-|---1---1-|---1---1-|---1---1-|
G ---0-----|-0-----0-|-----0---|---2-----|-2-----0-|-----0---|
D ---2-----|-------0-|---------|---2-----|-------2-|---------|
A ---2-----|-------2-|---------|-0-------|-----3---|---------|
E -0-------|-----3---|---------|---------|---------|---------|

Post-Chorus:
B  C  B  C  D

Intro
VERSE(CHORUS)
CHORUS(VERSE)
Post-Chorus
VERSE(CHORUS)
CHORUS(VERSE)
Post-Chorus
VERSE(CHORUS)
SOLO-Post-Chorus
VERSE(CHORUS)
Bridge
Outro picking
Listen to the song for timings, solo(not overly hard), etc.

KEEP ON ROCKIN" IN THE FREE WORLD!
            
Hard to play? Try these video lessons and learn fast. | Correct




comments powered by Disqus
↑ Back to top | Tablatures and chords are parodies/interpretations of the original songs. You may use it for private study, scholarship, research or language learning purposes only