» » »

Surf Wax America Bass tabs (ver.1)

Artists:  A B C D E F G H I J K L M N O P Q R S T U V W X Y Z # 

Surf Wax America Bass tabs (ver.1)

Weezer
Rating:
0/5 (0 votes)

Tabs too difficult? Try these video lessons and learn fast.
                
tuning eb ab db gb

intro

-------------------------------------------------
-------------------------------------------------
-5-5-5-5-7-7-7-5-------5-5-5-5-7-7-7-5-----------
-----------------7-7-3-----------------7-7-3-3-3-

verse 

-------------------------------
-------------------------------
-5-5-5-5-7-7-7-5---------------
-----------------7-7-7-3-3-3-3-

chorus

-----------------------------------------7-7-7-7-7-7-7-7-10-10-10-10-10-10-10-10-
-8-8-8-8-8-8-8-8-10-10-10-10-10-10-10-10-----------------------------------------

interlude

-----------
-----------
------7-10-
-8-10------

bridge

---------------------------------
---------------------------------
---------3-3-3-3-----------------
-5-5-5-5---------3-3-3-3-3-3-3-3-

breakdown

-------------
-------------
-------7--10-
-8--10-------

outro

---------------------------------|-----------------
---------------------------------|-----------------
-3-3-3-3-3-3-2-2-------------2-2-|-3-3-3-3-3-3-2---
-----------------3-3-3-3-3-3-----|---------------3-
            
Tabs too difficult? Try these video lessons and learn fast.




comments powered by Disqus
↑ Back to top | Tablatures and chords are parodies/interpretations of the original songs. You may use it for private study, scholarship, research or language learning purposes only