» » »

Smile Bass tabs (ver.2)

Artists:  A B C D E F G H I J K L M N O P Q R S T U V W X Y Z # 

Smile Bass tabs (ver.2)

Weezer
Rating:
0/5 (0 votes)
Tabs too difficult? Try these video lessons and learn fast.
                Intro
G:-----------------------------------------------------------------------------|
D:-----------------------------------------------------------------------------|
A:-----------------------------------------------------------------------------|
E:-5-5-5-5--4-5-4--5-5-5-5--4-5-4--7-7-7-7--5-7-5--7-7-7-7-7-7-7-7-------------|

Verse
G:-------------------------------------------------------------------------------------|
D:-------------------------------------------------------------------------------------|
A:----------------------0-0-0-0-------------2-2-2-2--4-4-4-4---------------------------|
E:-0-0-0-0--4-4-4-4-------------2-2-2-2------------------------4-4-4-4-4-4-4-4---------|

Chorus
G:-----------------------------------------------------------------------------------|
D:-----------------------------------------------------------------------------------|
A:-0-0-0-0--2-2-2-2-----------------------0-0-0-0-0-0-0-0--2-2-2-2-2-2-2-2-----------|
E:----------------------0-0-0-0--4-4-4-4---------------------------------------------|

Repeat verse
Repeat chorus

Bridge
G:----------------------------------------------------------------------------|
D:----------------------------------------------------------------------------|
A:-0-0-0-0-0-0-0-0--2-2-2-2-2-2-2-2-------------------------------------------|
E:------------------------------------------0-0-0-0-0-0-0-0--4-4-4-4-4-4-4-4--|

Repeat intro
Repeat verse
Repeat chorus
Repeat bridge
Repeat intro

Outro:
G:-------------------------------------------------------------|
D:-------------------------------------------------------------|
A:----------------------2-2-2-2--------------2~--4~------------|
E:-0-0-0-0--4-4-4-4-------------2-2-2-2------------4~----------|
            
Tabs too difficult? Try these video lessons and learn fast.


comments powered by Disqus
↑ Back to top | Tablatures and chords are parodies/interpretations of the original songs. You may use it for private study, scholarship, research or language learning purposes only