» » »

Say It Aint So Tabs (ver.4)

Artists:  A B C D E F G H I J K L M N O P Q R S T U V W X Y Z # 

Say It Aint So Tabs (ver.4)

Weezer
Rating:
0/5 (0 votes)
Tabs too difficult? Try these video lessons and learn fast.
                "say it ain't so" by weezer

This isn't exactly like the recording but it sounds really good on 
an acoustic. Some tabs say to tune down a half step but I think it sounds
fine in normal tuning.  listen to the song for the rythym.

* above a chord means hold it (as in a half note)

intro play twice

--4-4--4------------5-5-5---0----------------------------------
--5-5--4--------4---5-5-5---0-------0--------------------------
--6-6--5-------5----6-6-6---1------1---------------------------
--6-6--6------6-----7-7-7---2-----2----------------------------
--4-4--6-----6------7-7-7---2----2-----------------------------
-------4----4-------5-5-5---0---0------------------------------

verse				prechorus/bridge
	  *           *			*
---4-4----4----5-5----0-----4----5-5----0--------------------
---5-5----4----5-5----0-----4----5-5----0--------------------
---6-6----5----6-6----1--|--5----6-6----1--------------------
---6-6----6----7-7----2--|--6----7-7----2--------------------
---4-4----6----7-7----2-----6----7-7----2--------------------
----------4----5-5----0-----4----5-5----0--------------------

chorus
				      *						
---4--4-------4--4-------|-5--5-------0-------0--0--0--
---5--5-------4--4-------|-5--5-------0-------0--0--0--
---6--6-------5--5-------|-6--6-------1-------1--1--1--
---6--6-------6--6-------|-7--7-------2-------2--2--2--
---4--4-------6--6-------|-7--7-------2-------2--2--2--
--------------4--4-------|-5--5-------0-------0--0--0--

Outro: repeat intro

order 
intro x2
verse x4
prechorus
chorus x3
bridge
intro x2
verse x2
prechorus
chorusx2
bridge
intro x2 (hold last e chord instead of arpeggio)
bridge
            
Tabs too difficult? Try these video lessons and learn fast.


comments powered by Disqus
↑ Back to top | Tablatures and chords are parodies/interpretations of the original songs. You may use it for private study, scholarship, research or language learning purposes only