>
 >
Possibilties

Possibilties Bass Tabs

Weezer - Possibilties chords, tabs, tablatures, lyrics

Guitar lessons | Add/correct | Request | Top 50 tabs Artists:  A B C D E F G H I J K L M N O P Q R S T U V W X Y Z 0-9

Possibilties Bass Tabs – Weezer

CD, Sheet music, Poster

Do you like Possibilties? Share with your friends now
Bass Tabs
Weezer- possibilities 
Album - maladroit


This is the first tab of this song so here it is Im sure it correct if not please comment. Please rate it. 

intro
G--------------------------------------------------------------
D-1-1-1-1-1-1-1-1----------------1-1-1-1-1-1-1-1---------------
A-----------------1-1-1-1-1-1-1-1---------------1-1-1-1-1-1-1-1
E--------------------------------------------------------------

G----------------------------------------------------------------
D-1-1-0-0-------------------------0-0-0-0-0-0-0-0-0-0-0-0-0-0-0-0
A--------3-3-2-2--1-1-1-1-1-1-1-1--------------------------------
E----------------------------------------------------------------


Riff 1 (oh, oh, possibilities)
G----------------------------------------------------------------
D----------------------------------------------------------------
A-----------------5-5-5-5-5-5-5-5-7-7-7-7-7-7-7-7----------------
E-3-3-3-3-3-3-3-3---------------------------------8-8-8-8-8-8-8-8

G-------------------------------------------------------------
D-------------------------------------------------------------
A-----------------3-3-3-3-3-3-3-3-5-5-5-5-5-5-5-5-55-33-22-11
E-3-3-3-3-3-3-3-3---------------------------------------------


Riff 2 (I never thought Id do that......take me all the way)
G--------------------------------------------------------------
D--------------------------------------------------------------
A-0-0-0---0-0-0--0-0-0-0-0-0----2-2-2-2-2-2-2-2-2--2-2-2-2-
E-------0-------0------0------0--------2------2-------2-------2

G----------------------------------------------------------
D----------------------------------------------------------
A-3-3-3-3-3-3--3-3-3-3-3-3---5-5-5-5-5-5-5-5-55-33-22-00
E------3------3-------3-----3------------------------------


Riff 1 x1 (oh, oh, take me by the hand)


Riff 3
G--------------------------------------------------------------
D--------------------------------------------------------------
A-0-0-0---0-0-0--0-0-0-0-0-0----2-2-2-2-2-2-2-2-2--2-2-2-2-
E-------0-------0------0------0--------2------2-------2-------2

G------------------------------------------------------------
D------------------------------------------------------------
A-3-3-3-3-3-3--3-3-3-3-3-3---5-5-5--5-5-5--5-5-5-5-5-5-5-5
E------3------3-------3-----3-------5------5-----------------

Riff 4 
G-------------------------------------------------------------------
D----------8-8-8-8--------------------------8-8-8-8-----------------
A-6-6-6-6---------------------------6-6-6-6-------------------------
E------------------6-6-6-6-6-6-6-6-------------------6-6-6-6-6-6-6-6

G-----------------------------------------------------------------
D----------8-8-8-8------------------------------------------------
A-6-6-6-6---------------------------5-5-5-5-5-5-5-5-55-33-22-00--
E------------------6-6-6-6-6-6-6-6--------------------------------

Riff 1 x1

Riff 3 x1

Riff 4 x1

Outro
G----------------------------------------------------------------
D----------------------------------------------------------------
A-----------------5-5-5-5-5-5-5-5-----------------5-5-5-5-5-5-5-5
E-3-3-3-3-3-3-3-3-----------------5-5-5-5-5-5-5-5----------------

G----------------------------------------------------------------
D----------------------------------------------------------------
A-----------------7-7-7-7-7-7-7-7--------------------------------
E-7-7-7-7-7-7-7-7-----------------8-8-8-8-8-8-8-8-8-8-8-8-8-8-8-8

G--------------------------------------------------------------
D--------------------------------------------------------------
A------------------------------------------------3--3-3-3----
E-1010-99-88-77-66-55-44-22-3-3-3-3-3-3-3-3---3---------------3





Comments


Popular Weezer tabs & chords
No Other One 3 Bass Tabs
The Christmas Song 3 Bass Tabs
Baby One More Time 2 Chords
Buddy Holly 1 Chords
Trippin Down The Freeway Chords
Island In The Sun Intro Tabs
Possibilites Tabs
Suzanne 1 Tabs
The Angel And The One 1 Tabs
In The Garage Ukulele


Song lyrics



↑ Back to top | Tablatures and chords are parodies/interpretations of the original songs. You may use it for private study, scholarship, research or language learning purposes only
© 2014 AZChords.com Contact us | Privacy policy | DMCA | Add/correct tabs | Request tabs | Top 50 tabs