>
 >
Pardon Me

Pardon Me Guitar Tabs

Weezer - Pardon Me chords, tabs, tablatures, lyrics

Guitar lessons | Add/correct | Request | Top 50 tabs Artists:  A B C D E F G H I J K L M N O P Q R S T U V W X Y Z 0-9

Pardon Me Guitar Tabs – Weezer

CD, Sheet music, Poster

Do you like Pardon Me? Share with your friends now
Tabs
----------------------------------------------------------------------------
----------------------------------------------------------------------------

Tuning: Eb Bb Gb Db Ab Eb

Intro (Played over bass plucking chorus notes)
eb|------------|--------------------|------------|--------------------|
Bb|------------|--------------------|------------|--------------------|
Gb|------------|--------------------|------------|--------------------|
Db|-----6-7-9~-|---10-10--9-9--7-7--|-----6-7-9~-|-9--10-10--9-9-7-7~|
Ab|---7--------|--------------------|---7--------|--------------------|
Eb|------------|--------------------|------------|--------------------|
     Repeat 3X then                    Repeat 3X then


Verse 1 & 2 (Palm Mute all chords)
eb|-----------------|-----------------|-----------------|-----------------|
Bb|-----------------|-----------------|-----------------|-----------------|
Gb|-9-9-9-9-9-9-9-9-|-9-9-9-9-9-9-9-9-|-6-6-6-6-6-6-6-6-|-6-6-6-6-6-6-6-6-|
Db|-9-9-9-9-9-9-9-9-|-9-9-9-9-9-9-9-9-|-6-6-6-6-6-6-6-6-|-6-6-6-6-6-6-6-6-|
Ab|-7-7-7-7-7-7-7-7-|-7-7-7-7-7-7-6-6-|-4-4-4-4-4-4-4-4-|-4-4-4-4-4-4-2-2-|
Eb|-----------------|-----------------|-----------------|-----------------|
         I tried my best                     I gave my all
         I never thought                     That anyone

eb|-----------------|-----------------|-----------------|
Bb|-----------------|-----------------|-----------------|
Gb|-----------------|---------4-4-4-4-|-----------------|
Db|-7-7-7-7-7-7-7-7-|-4-4-4-4-4-4-4-4-|-2-2-2-2-2-2-2-2-|
Ab|-7-7-7-7-7-7-7-7-|-4-4-4-4-2-2-2-2-|-2-2-2-2-2-2-2-2-|
Eb|-5-5-5-5-4-4-4-4-|-2-2-2-2---------|-0-0-0-0-0-0-0-0-|
         Sometimes my best wasn't good enough
         Was more important than the plans

eb|-----------------|-----------------|-----------------|
Bb|-----------------|-----------------|-----------------|
Gb|-----------------|---------4-4-4-4-|-----------------|
Db|-7-7-7-7-7-7-7-7-|-4-4-4-4-4-4-4-4-|-2-2-2-2-7-7-7-7-|
Ab|-7-7-7-7-7-7-7-7-|-4-4-4-4-2-2-2-2-|-2-2-2-2-7-7-7-7-|
Eb|-5-5-5-5-4-4-4-4-|-2-2-2-2---------|-0-0-0-0-5-5-4-4-|
    for you           Sometimes I let you go
    I made            But now I feel the shame

eb|-----------------|-----------------|-----------------|-----------------|
Bb|-----------------|-----------------|-----------------|-----------------|
Gb|---------4-4-4-4-|-----------------|---------4-4-4-4-|-----------------|
Db|-4-4-4-4-4-4-4-4-|-2-2-2-2-7-7-7-7-|-4-4-4-4-4-4-4-4-|-2-2-2-2-7-7-7-7-|
Ab|-4-4-4-4-2-2-2-2-|-2-2-2-2-7-7-7-7-|-4-4-4-4-2-2-2-2-|-2-2-2-2-7-7-7-7-|
Eb|-2-2-2-2---------|-0-0-0-0-5-5-4-4-|-2-2-2-2---------|-0-0-0-0-5-5-5-5-|
        Sometimes I hurt you so             I know that I can be
        There's no one else to blame        For all the broken hearts

eb|---------------------|-----------------|-----------------|-------------|
Bb|---------------------|-----------------|-----------------|-------------|
Gb|-11-11-11-11---------|-6-6-6-6---------|---------4-4-4-4-|-4-4-4-4-----|
Db|-11-11-11-11-6-6-6-6-|-6-6-6-6-4-4-4-4-|-4-4-4-4-4-4-4-4-|-4-4-4-4-----|
Ab|-9--9--9--9--6-6-6-6-|-4-4-4-4-4-4-4-4-|-4-4-4-4-2-2-2-2-|-2-2-2-2-----|
Eb|-------------4-4-4-4-|---------2-2-2-2-|-2-2-2-2---------|-------------|
   the meanest person     in the world 
   I scattered on   the fields of war


PreChorus
eb|-----------------|-----------------|-----------------|-----------------|
Bb|-----------------|-----------------|-----------------|-----------------|
Gb|-----------------|-2-2-2-2-2-2-2-2-|-----------------|-4-4-4-4-4-4-4-4-|
Db|-2-2-2-2-2-2-2-2-|-2-2-2-2-2-2-2-2-|-4-4-4-4-4-4-4-4-|-4-4-4-4-4-4-4-4-|
Ab|-2-2-2-2-2-2-2-2-|-0-0-0-0-0-0-0-0-|-4-4-4-4-4-4-4-4-|-2-2-2-2-2-2-2-2-|
Eb|-0-0-0-0-0-0-0-0-|-----------------|-2-2-2-2-2-2-2-2-|-----------------|
    So I apologize to you               And to anyone else that I hurt too

eb|-----------------|-----------------|-----------------|-----------------|
Bb|-----------------|-----------------|-----------------|-----------------|
Gb|-----------------|-6-6-6-6-6-6-6-6-|-2-2-2-2-2-2-2-2-|-4-4-4-4-4-4-4-4-|
Db|-6-6-6-6-6-6-6-6-|-6-6-6-6-6-6-6-6-|-2-2-2-2-2-2-2-2-|-4-4-4-4-4-4-4-4-|
Ab|-6-6-6-6-6-6-6-6-|-4-4-4-4-4-4-4-4-|-0-0-0-0-0-0-0-0-|-2-2-2-2-2-2-2-2-|
Eb|-4-4-4-4-4-4-4-4-|-----------------|-----------------|-----------------|
    I may not be a perfect soul     but I can learn       self control


Chorus
eb|-----------------|-----------------|-----------------|-X-XX------------|
Bb|-----------------|-----------------|-----------------|-X-XX------------|
Gb|-9-9-9-9-9-9-9-9-|-9-9-9-9-9-9-9-9-|-6-6-6-6-6-6-6-6-|-X-XX-7-7--7-7~-|
Db|-9-9-9-9-9-9-9-9-|-9-9-9-9-9-9-9-9-|-6-6-6-6-6-6-6-6-|-X-XX-7-7--7-7~-|
Ab|-7-7-7-7-7-7-7-7-|-5-5-5-5-5-5-5-5-|-4-4-4-4-4-4-4-4-|-X-XX-5-5--5-5~-|
Eb|-----------------|-----------------|-----------------|-X-XX------------|
 So pardon me         pardon me         pardon me my friend


Lead into Verse
eb|---------|
Bb|---------|
Gb|-7-5-----|
Db|-----7---|
Ab|-------7-|
Eb|---------|


Guitar Solo
eb|--------------------|--------------------|-------------------------|
Bb|--------------------|--------------------|---12-12~-10-10~-9-9~----|
Gb|-9~--9-8-9-11-9---8-|-9~--9-8-9-11-9---8-|-9--------------------11-|
Db|--------------------|--------------------|-------------------------|
Ab|--------------------|--------------------|-------------------------|
Eb|--------------------|--------------------|-------------------------|

eb|-------------12~~~---|
Bb|-9b~-----------------|
Gb|----------9----------|
Db|---------------------|
Ab|---------------------|
Eb|---------------------|


Final Verse and Chorus/Outro
eb|-----------------|-----------------|
Bb|-----------------|-----------------|
Gb|---------4-4-4-4-|-----------------|
Db|-4-4-4-4-4-4-4-4-|-2-2-2-2-7-7-7-7-|
Ab|-4-4-4-4-2-2-2-2-|-2-2-2-2-7-7-7-7-|
Eb|-2-2-2-2---------|-0-0-0-0-5-5-4-4-|
        Sometimes I let you go

eb|-----------------|-----------------|-----------------|-----------------|
Bb|-----------------|-----------------|-----------------|-----------------|
Gb|---------4-4-4-4-|-----------------|---------4-4-4-4-|-----------------|
Db|-4-4-4-4-4-4-4-4-|-2-2-2-2-7-7-7-7-|-4-4-4-4-4-4-4-4-|-2-2-2-2-7-7-7-7-|
Ab|-4-4-4-4-2-2-2-2-|-2-2-2-2-7-7-7-7-|-4-4-4-4-2-2-2-2-|-2-2-2-2-7-7-7-7-|
Eb|-2-2-2-2---------|-0-0-0-0-5-5-4-4-|-2-2-2-2---------|-0-0-0-0-5-5-5-5-|
        Sometimes I hurt you so             I know that I can be

eb|---------------------|-----------------|-----------------|-------------|
Bb|---------------------|-----------------|-----------------|-------------|
Gb|-11-11-11-11---------|-6-6-6-6---------|---------4-4-4-4-|-4-4-4-4-----|
Db|-11-11-11-11-6-6-6-6-|-6-6-6-6-4-4-4-4-|-4-4-4-4-4-4-4-4-|-4-4-4-4-----|
Ab|-9--9--9--9--6-6-6-6-|-4-4-4-4-4-4-4-4-|-4-4-4-4-2-2-2-2-|-2-2-2-2-----|
Eb|-------------4-4-4-4-|---------2-2-2-2-|-2-2-2-2---------|-------------|
   the meanest person     in the world 

PreChorus            Strum
eb|-----------------|-----------------|-----------------|-----------------|
Bb|-----------------|-----------------|-----------------|-----------------|
Gb|-----------------|-2~--------------|-----------------|-4~--------------|
Db|-2~--------------|-2~--------------|-4~--------------|-4~--------------|
Ab|-2~--------------|-0~--------------|-4~--------------|-2~--------------|
Eb|-0~--------------|-----------------|-2~--------------|-----------------|
    So I apologize to you         And to anyone else that I hurt too

  (Half Palm Mute)   
eb|-----------------|-----------------|-----------------|-----------------|
Bb|-----------------|-----------------|-----------------|-----------------|
Gb|-----------------|-6-6-6-6-6-6-6-6-|-2-2-2-2-2-2-2-2-|-4-4-4-4-4-4-4-4-|
Db|-6-6-6-6-6-6-6-6-|-6-6-6-6-6-6-6-6-|-2-2-2-2-2-2-2-2-|-4-4-4-4-4-4-4-4-|
Ab|-6-6-6-6-6-6-6-6-|-4-4-4-4-4-4-4-4-|-0-0-0-0-0-0-0-0-|-2-2-2-2-2-2-2-2-|
Eb|-4-4-4-4-4-4-4-4-|-----------------|-----------------|-----------------|
    I may not be a perfect soul     but I can learn       self control

eb|-----------------|-----------------|-----------------|-----------------|
Bb|-----------------|-----------------|-----------------|-----------------|
Gb|-----------------|-6-6-6-6-6-6-6-6-|-2-2-2-2-2-2-2-2-|-4-4-4-4-4-4-4-4-|
Db|-6-6-6-6-6-6-6-6-|-6-6-6-6-6-6-6-6-|-2-2-2-2-2-2-2-2-|-4-4-4-4-4-4-4-4-|
Ab|-6-6-6-6-6-6-6-6-|-4-4-4-4-4-4-4-4-|-0-0-0-0-0-0-0-0-|-2-2-2-2-2-2-2-2-|
Eb|-4-4-4-4-4-4-4-4-|-----------------|-----------------|-----------------|
    And in my heart   I feel it's true  so I will be     there with you!

Chorus/Outro
eb|-----------------|-----------------|-----------------|-----------------|
Bb|-----------------|-----------------|-----------------|-----------------|
Gb|-9-9-9-9-9-9-9-9-|-9-9-9-9-9-9-9-9-|-6-6-6-6-6-6-6-6-|-7-7-7-7-7-7-7-7-|
Db|-9-9-9-9-9-9-9-9-|-9-9-9-9-9-9-9-9-|-6-6-6-6-6-6-6-6-|-7-7-7-7-7-7-7-7-|
Ab|-7-7-7-7-7-7-7-7-|-5-5-5-5-5-5-5-5-|-4-4-4-4-4-4-4-4-|-5-5-5-5-5-5-5-5-|
Eb|-----------------|-----------------|-----------------|-----------------|
 So pardon me         pardon me         pardon me my friend
 
                                                        (I really want a 
eb|-----------------|-----------------|-----------------|-----------------|
Bb|-----------------|-----------------|-----------------|-----------------|
Gb|-9-9-9-9-9-9-9-9-|-7-7-7-7-7-7-7-7-|-9-9-9-9-9-9-9-9-|-7-7-7-7-7-7-7-7-|
Db|-9-9-9-9-9-9-9-9-|-7-7-7-7-7-7-7-7-|-9-9-9-9-9-9-9-9-|-7-7-7-7-7-7-7-7-|
Ab|-7-7-7-7-7-7-7-7-|-5-5-5-5-5-5-5-5-|-7-7-7-7-7-7-7-7-|-5-5-5-5-5-5-5-5-|
Eb|-----------------|-----------------|-----------------|-----------------|
    pardon me                        my friend
   friend)             (I really want a friend)           (I really want a 

eb|-----------------|-----------------|-----------------|-----------------|
Bb|-----------------|-----------------|-----------------|-----------------|
Gb|-9-9-9-9-9-9-9-9-|-7-7-7-7-7-7-7-7-|-9-9-9-9-9-9-9-9-|-7-7-7-7-7-7-7-7-|
Db|-9-9-9-9-9-9-9-9-|-7-7-7-7-7-7-7-7-|-9-9-9-9-9-9-9-9-|-7-7-7-7-7-7-7-7-|
Ab|-7-7-7-7-7-7-7-7-|-5-5-5-5-5-5-5-5-|-7-7-7-7-7-7-7-7-|-5-5-5-5-5-5-5-5-|
Eb|-----------------|-----------------|-----------------|-----------------|
    pardon me                        my friend
    friend)            (I really want a friend)

| /  slide up
| \  slide down
| h  hammer-on
| p  pull-off
| ~  vibrato
| +  harmonic
| x  Mute note
============================================================================





Comments


Popular Weezer tabs & chords
Undone The Sweater Song Bass Tabs
Don't Let Go Chords
Slave Chords
Smart Girls Chords
Crab 1 Tabs
Devotion Tabs
Hash Pipe 1 Tabs
Joshua Elmer Tabs
Sweater Tabs
Tragic Girl Ukulele


Song lyrics



↑ Back to top | Tablatures and chords are parodies/interpretations of the original songs. You may use it for private study, scholarship, research or language learning purposes only
© 2014 AZChords.com Contact us | Privacy policy | DMCA | Add/correct tabs | Request tabs | Top 50 tabs