» » »

Weezer, Mrs. Robinson Tabs (ver.1)

Artists:  A B C D E F G H I J K L M N O P Q R S T U V W X Y Z # 

Mrs. Robinson Tabs (ver.1)

Weezer Tabs
 Rating:
4/5 (4 votes)
Mrs. Robinson lessons Tabs too difficult? Try these video lessons and learn fast
1
                Intro
|----------------------------------0-----------------2----|
|----------------------------------1-----------------3----|
|-9------------7---------5----3----2(x4)-------9-----2(x8)|
|-9(x40)7------7(x8)5----5(x4)3(x4)2----7------9(x16)0----|
|-7-----7(x32)-5----5(x8)3----1---------7-(x12)7----------|
|-------5-----------3-------------------5-----------------|

Chorus
|--3------3-------3------3------0---------2---------|
|--3------3-------3------3------1---------3-(x16)---|
|--0------0-------0------0------0---------2---------|
|--0-(x8)-2-(x8)--0-(x8)-2-(x8)-2-(x16)---0---------|
|--2------2-------2------2------3-------------------|
|--3------0-------3------0------0-------------------|

|--3------3-------3------3------0---------------|
|--3------3-------3------3------1---------------|
|--0------0-------0------0------2-(x16)---------|
|--0-(x8)-2-(x8)--0-(x8)-2-(x8)-2-------7-------|
|--2------2-------2------2--------------7-(x16)-|
|--3------0-------3------0--------------5-------|

Verse
|------------------------3-------0--------3--------0---------------|
|------------------------3-------1--------3--------1---------------|
|-9---------------7------0-------0--------0--------2-(x4)--9-------|
|-9-(x40)-7-------7-(x8)-0-------2-(x8)---0--------2-------9-(x16)-|
|-7-------7-(x32)-5------2-(x8)--3--------2-(x8)-----------7-------|
|---------5--------------3-------0--------3------------------------|

Chorus
|--3------3-------3------3------0---------2---------|
|--3------3-------3------3------1---------3-(x16)---|
|--0------0-------0------0------0---------2---------|
|--0-(x8)-2-(x8)--0-(x8)-2-(x8)-2-(x16)---0---------|
|--2------2-------2------2------3-------------------|
|--3------0-------3------0------0-------------------|

|--3------3-------3------3------0---------------|
|--3------3-------3------3------1---------------|
|--0------0-------0------0------2-(x16)---------|
|--0-(x8)-2-(x8)--0-(x8)-2-(x8)-2-------7-------|
|--2------2-------2------2--------------7-(x16)-|
|--3------0-------3------0--------------5-------|
Then These parts just repeat.
            
Submit corrections

comments powered by Disqus
↑ Back to top | Weezer Tabs for Mrs. Robinson. Lyrics for acoustic guitar and electric guitar. 1 Tablatures and chords are parodies/interpretations of the original songs. You may use it for private study, scholarship, research or language learning purposes only