>
 >
Memories

Memories Guitar Tabs

Weezer - Memories chords, tabs, tablatures, lyrics

Guitar lessons | Add/correct | Request | Top 50 tabs Artists:  A B C D E F G H I J K L M N O P Q R S T U V W X Y Z 0-9

Memories Guitar Tabs – Weezer

CD, Sheet music, Poster

Do you like Memories? Share with your friends now
Bass TabsBass Tabs v2ChordsTabsTabs v2Tabs v3Tabs v4Ukulele
-------------------------------------------------------------------------------
-------------------------------------------------------------------------------

Tuning:EADGBe

This tab includes 2 guitars: RHYTHM GUITAR and LEAD GUITAR.

It's a pretty simple song, so I'm going to tab it as easy as posible
Intro + verse1:
_RHYTHM GUITAR_
e|------------------|-----------------| (play this part 10 times)
B|------------------|-----------------|
G|--4-4-4-4-4-4-4-4-|-9-9-9-9-9-9-9-9-|
D|--4-4-4-4-4-4-4-4-|-9-9-9-9-9-9-9-9-|
A|--2-2-2-2-2-2-2-2-|-7-7-7-7-7-7-7-7-|
E|------------------|-----------------|

_LEAD GUITAR_         *Listen to the song for the timing*
e|-------|-------|-------| (The fourth time instead of playing notes,
B|-------|-------|-------| just slide your pick over your strings)
G|-------|-------|-------|
D|-------|-------|-------|
A|---4-2-|---4-6-|---4-2-|
E|-------|-------|-------|

Chorus:
_RHYTHM GUITAR_
e|----------------------------------|---------------------------------|Play 4 times
B|----------------------------------|---------------------------------|
G|--9-9-9-9-9-9-9-9-9-9-9-9-9-9-9-9-|-4-4-4-4-4-4-4-4-4-4-4-4-4-4-4-4-|
D|--9-9-9-9-9-9-9-9-9-9-9-9-9-9-9-9-|-4-4-4-4-4-4-4-4-4-4-4-4-4-4-4-4-|
A|--7-7-7-7-7-7-7-7-7-7-7-7-7-7-7-7-|-2-2-2-2-2-2-2-2-2-2-2-2-2-2-2-2-|
E|----------------------------------|---------------------------------|

_LEAD GUITAR_ 
e|-11-9---12-11-9--9-----9----9----|  Play 4 times
B|-------------------12-----12---12| 
G|---------------------------------|
D|---------------------------------|
A|---------------------------------|
E|---------------------------------|

then play this:
*The notes betwee the "()" are optional*
e|---------------|---------------------------------|
e|---------------|---------------------------------|
B|---------------|---------------------------------|
G|---------------|-4-4-4-4-4-4-4-4-4-4-4-4-4-4-4-4-|
D|-(7-6-4-6-4-2)-|-4-4-4-4-4-4-4-4-4-4-4-4-4-4-4-4-|
A|-(7-6-4-6-4-2)-|-2-2-2-2-2-2-2-2-2-2-2-2-2-2-2-2-|
E|--5-4-2-4-2-0--|---------------------------------|

_LEAD GUITAR_ 
e|---------------|-7---------------| 
B|--10-9-7-9-7-5-|-----------------| 
G|---------------|-----------------|
D|---------------|-----------------|
A|---------------|-----------------|
E|---------------|-----------------|

verse2:
_RHYTHM GUITAR_
e|------------------|-----------------| (play this part 10 times)
B|------------------|-----------------|
G|--4-4-4-4-4-4-4-4-|-9-9-9-9-9-9-9-9-|
D|--4-4-4-4-4-4-4-4-|-9-9-9-9-9-9-9-9-|
A|--2-2-2-2-2-2-2-2-|-7-7-7-7-7-7-7-7-|
E|------------------|-----------------|

_LEAD GUITAR_         *Listen to the song for the timing*
e|-------|-------|-------| (The fourth time instead of playing notes,
B|-------|-------|-------| just slide your pick over your strings)
G|-------|-------|-------|
D|-------|-------|-------|
A|---4-2-|---4-6-|---4-2-|
E|-------|-------|-------|

Chorus:
_RHYTHM GUITAR_
e|----------------------------------|---------------------------------|Play 4 times
B|----------------------------------|---------------------------------|
G|--9-9-9-9-9-9-9-9-9-9-9-9-9-9-9-9-|-4-4-4-4-4-4-4-4-4-4-4-4-4-4-4-4-|
D|--9-9-9-9-9-9-9-9-9-9-9-9-9-9-9-9-|-4-4-4-4-4-4-4-4-4-4-4-4-4-4-4-4-|
A|--7-7-7-7-7-7-7-7-7-7-7-7-7-7-7-7-|-2-2-2-2-2-2-2-2-2-2-2-2-2-2-2-2-|
E|----------------------------------|---------------------------------|

_LEAD GUITAR_ 
e|-11-9---12-11-9--9-----9----9----|  Play 4 times
B|-------------------12-----12---12| 
G|---------------------------------|
D|---------------------------------|
A|---------------------------------|
E|---------------------------------|

then play this:
_RHYTHM GUITAR_
*The notes betwee the "()" are optional*
e|---------------|---------------------------------|
e|---------------|---------------------------------|
B|---------------|---------------------------------|
G|---------------|-4-4-4-4-4-4-4-4-4-4-4-4-4-4-4-4-|
D|-(7-6-4-6-4-2)-|-4-4-4-4-4-4-4-4-4-4-4-4-4-4-4-4-|
A|-(7-6-4-6-4-2)-|-2-2-2-2-2-2-2-2-2-2-2-2-2-2-2-2-|
E|--5-4-2-4-2-0--|---------------------------------|

_LEAD GUITAR_ 
e|---------------|-7---------------| 
B|--10-9-7-9-7-5-|-----------------| 
G|---------------|-----------------|
D|---------------|-----------------|
A|---------------|-----------------|
E|---------------|-----------------|

Bridge:
_RHYTHM GUITAR_
e|-----------------------------------|
B|-----------------------------------|
G|--4-4-4-4-4-4-4-4-4-4-4-4-4-4-4-4--|
D|--4-4-4-4-4-4-4-4-4-4-4-4-4-4-4-4--|
A|--2-2-2-2-2-2-2-2-2-2-2-2-2-2-2-2--|
E|-----------------------------------|

Then in the slow part:
   *Let ring*
e|---------------------------|-----------------------| (Play 2 times)
B|---------------------------|-----------------------|
G|-9-------------------------|-4---------------------|
D|-9-------------------------|-4---------------------|
A|-7-------------------------|-2---------------------|
E|---------------------------|-----------------------|

Chorus:
_RHYTHM GUITAR_
e|----------------------------------|---------------------------------|Play 4 times
B|----------------------------------|---------------------------------|
G|--9-9-9-9-9-9-9-9-9-9-9-9-9-9-9-9-|-4-4-4-4-4-4-4-4-4-4-4-4-4-4-4-4-|
D|--9-9-9-9-9-9-9-9-9-9-9-9-9-9-9-9-|-4-4-4-4-4-4-4-4-4-4-4-4-4-4-4-4-|
A|--7-7-7-7-7-7-7-7-7-7-7-7-7-7-7-7-|-2-2-2-2-2-2-2-2-2-2-2-2-2-2-2-2-|
E|----------------------------------|---------------------------------|

_LEAD GUITAR_ 
e|-11-9---12-11-9--9-----9----9----|  Play 4 times
B|-------------------12-----12---12| 
G|---------------------------------|
D|---------------------------------|
A|---------------------------------|
E|---------------------------------|

then play this:
_RHYTHM GUITAR_
*The notes betwee the "()" are optional*
e|---------------|---------------------------------|
e|---------------|---------------------------------|
B|---------------|---------------------------------|
G|---------------|-4-4-4-4-4-4-4-4-4-4-4-4-4-4-4-4-|
D|-(7-6-4-6-4-2)-|-4-4-4-4-4-4-4-4-4-4-4-4-4-4-4-4-|
A|-(7-6-4-6-4-2)-|-2-2-2-2-2-2-2-2-2-2-2-2-2-2-2-2-|
E|--5-4-2-4-2-0--|---------------------------------|

_LEAD GUITAR_ 
e|---------------|-7---------------| 
B|--10-9-7-9-7-5-|-----------------| 
G|---------------|-----------------|
D|---------------|-----------------|
A|---------------|-----------------|
E|---------------|-----------------|

************************************

| /   slide up
| \   slide down
| h   hammer-on
| p   pull-off
| ~   vibrato
| +   harmonic
| x   Mute note
| b   Bend
| pb  Pre-bend
| br  Bend release
| pbr Pre-bend release
| brb Bend release bend

************************************





Comments


Popular Weezer tabs & chords
Say It Aint So Bass Tabs
This Is Such A Pity Bass Tabs
Troublemaker Bass Tabs
Unspoken Chords
El Scorcho 1 Tabs
Jamie 1 Tabs
Say It Ain't So 1 Tabs
Surfwax America Tabs
The Girl Got Hot Tabs
The Good Life 2 Tabs


Song lyrics



↑ Back to top | Tablatures and chords are parodies/interpretations of the original songs. You may use it for private study, scholarship, research or language learning purposes only
© 2014 AZChords.com Contact us | Privacy policy | DMCA | Add/correct tabs | Request tabs | Top 50 tabs