» » »

Weezer, Keep Fishin Tabs (ver.3)

Artists:  A B C D E F G H I J K L M N O P Q R S T U V W X Y Z # 

Keep Fishin Tabs (ver.3)

Weezer Tabs
 Rating:
4/5 (4 votes)
Keep Fishin lessons Tabs too difficult? Try these video lessons and learn fast
                The song tabbed is the one from the cd Maladroit.

Intro:

e---------------------------------         
B---------------------------------
G---------------5-5-5-5--5p4-0-7-4         2X
D---5-5-5-5--x--5-5-5-5-----------
A---5-5-5-5--x--3-3-3-3-----------
E---3-3-3-3--x--------------------

verse:
e------------------------         
B------------------------
G---------------5-5-5-5--         2X
D---5-5-5-5--x--5-5-5-5--
A---5-5-5-5--x--3-3-3-3--
E---3-3-3-3--x-----------

e------------------------         
B------------------------
G---------------7-7-7-7--         2X
D---7-7-7-7--x--7-7-7-7--
A---7-7-7-7--x--5-5-5-5--
E---5-5-5-5--x-----------

chours:


e-----------------------------------         
B-------------------------------8-7-
G---------------5-5-x-2-2-x-7-7-0-0-       2X
D---5-5-x-2-2-x-5-5-x-2-2-x-7-7-7-7-
A---5-5-x-2-2-x-3-3-x-0-0-x-5-5-5-5-
E---3-3-x-0-0-x---------------------

Interlude:


e-------------------------------         
B-------------------------------
G---5-5-(7times)-x--------------     2X
D---5-5----------x-5-5-(7times)-
A---3-3----------x-5-5----------
E------------------3-3----------


e------------------------------------
B------------------------------------
G---5-5-(7times)-x-------x-5-x-2-x-7-
D---5-5----------x-5-x-2-x-5-x-2-x-7-
A---3-3----------x-5-x-2-x-3-x-0-x-5-
E------------------3-x-0-------------


After the Interlude the 2nd guitar plays this:


e---3/2-3------------------------------------
B--------------------------------------------
G----------------------------------5p4-0-7-4-
D----------------5-5---------5-9-------------
A-----------5/7--------5/7-------------------
E--------------------------------------------

e------------------------------------
B------------------------------------
G--------------------------5p4-0-7-4-
D--------5-5---------5-9-------------
A---5/7--------5/7-------------------
E------------------------------------


ending chord:

e------
B------
G------
D--5---
A--5---
E--3---

o and at the end theres like alil thing i think its the bass
but if you wanna play it its:

e-----------------------
B-----------------------
G-----------------------
D-----------------------
A-----------------------
E--15-13-10-15-13-10-15-

intro
verse
chours
verse
chours
interlude
verse
chours
interlude
verse
ending chord
            
Submit corrections

comments powered by Disqus
↑ Back to top | Weezer Tabs for Keep Fishin. Lyrics for acoustic guitar and electric guitar. Tablatures and chords are parodies/interpretations of the original songs. You may use it for private study, scholarship, research or language learning purposes only