» » »

Weezer, Jamie Bass tabs (ver.1)

Artists:  A B C D E F G H I J K L M N O P Q R S T U V W X Y Z # 

Jamie Bass tabs (ver.1)

Weezer Tabs
Rating:
0/5 (0 votes)
Jamie lessons Tabs too difficult? Try these video lessons and learn fast
                Band: Weezer
Tuning: standard E,A,D,G

i just have to say this is the best freaking song in the world...........

Intro/Verse:"jaeeeeeeemmmmmie"...... part
G-----------------
D-----------------
A---------5-5-5-5-
E-3-3-3-3---------


Prechorus:
G-----------------------------------
D-----------------------------------
A------------------2-2-2-2--3-3-3-3-
E-3-3-3-3--0-0-0-0------------------
"when i was down u came to me"...... part

thens there some INTERLUDE part that is in the song a few times..
G----------------------------
D----------------------------
A------------2--3-3-3-3-3--0-
E-0-0-0-0-0------------------

Chorus: "jamie, jamie, i'm so glad your mine..."

G-------------------------------------------------------------------------
D-------------------------------------------------------------------------
A------------------5-5-5-5-5-5-5-5-5-----------2-2-2-2--3-3-3-3-3-3-3-3-3-
E-3-3-3-3-3-3-3-3---------------------0-0-0-0-----------------------------

Chorus continued: "we'll be together a long tiiiiiimmmmmmmmmeeee...."
G--------------------------------------------------------------------
D--------------------------------------------------------------------
A------------------5-5-5-5-5-5-5-5-------------------3-3-3-3-3-3-3-3-
E-3-3-3-3-3-3-3-3-------------------0-0-0-0-0-0-0-0------------------

Bridge:
"Sometimes it seems......."
G------------
D------------
A---5---2-3--
E-3---0------

"Your not with me.........."
G---------
D---------
A---5---3-
E-3---0---

Song Structure:
Verse/intro: x10
Prechorus: x2
Verse/intro: x2
Interlude: x1
Chorus: x1
Verse/intro: x12
Prechorus: x2
Interlude: x1
Chorus: x2
Bridge: x1
Verse/intro: x2
Bridge: x1
Verse: x10
Prechorus: x4
Chorus: x2
Bridge: x1
Verse/intro: x2
Bridge: x1
Verse/intro: x4
Interlude: x1
Verse/intro: x1
Interlude: x1
FINISHED!

LYRICS
Jamie, what you doin' now?
what you doin' now girl?
please, please tell me
cuz I need to know,
I need to know now...
when I was down
you came to me
and promised to always be
and i'm waiting patiently
jamie i want you to know...
Jamie, jamie
i'm so glad your mine,
we'll be together a long time...
Jamie...
what you doing now?
your starting your carphone
please, please be true
u know that i trust you
to that what u must do
when i was down
you came to me
and promised to allways be
and i'm waiting patiently
Jamie, i want u to know
Jamie
jamie
i'm so gald your mine
we'll be together a long time
you've got the beach boys and your firms got the stone.......
but i know you won't leave me alone....
sometimes it seems.......
your not with me.......
it hurts me so much it hurts me so much
sometimes it seems.......
your not with me.......
it hurts me so much it hurts me so much
you are the most 
your so rad
your so precious i'm so glad
i am yours 
you r mine
show me where and i will sign
when i was down you came to me
and promised to all ways be by my side now your gone and i'm waiting waiting.....
jamie
jamie
i'm so glad your mine.........
we'll be together a long time
jamie
believe me
i won't let you down
cuz you are the best lawyer in town..........
sometimes it seems.....
your not with me
it hurts me so much
it hurts me so much
sometimes it seems.....
your not with me
it hurts me so much
it hurts me so much
i love u so much i love u soooooooooooooo much
            
Submit corrections

comments powered by Disqus
↑ Back to top | Weezer Bass for Jamie. Lyrics for acoustic guitar and electric guitar. Tablatures and chords are parodies/interpretations of the original songs. You may use it for private study, scholarship, research or language learning purposes only