» » »

Weezer, Island In The Sun Tabs (ver.3)

Artists:  A B C D E F G H I J K L M N O P Q R S T U V W X Y Z # 

Island In The Sun Tabs (ver.3)

Weezer Tabs
Rating:
0/5 (0 votes)
Island In The Sun lessons Tabs too difficult? Try these video lessons and learn fast
                Guitarists: 
 Guitar 1 - Brian Bell

 Guitar 2 - Rivers Cuomo

 Guitar 3 - ???(Mixed In)

There are two ways of playing the intro:
I use the second way as i find it easier to play, both sound pretty
much the same so its not really important.
#1) Intro (Guitar 1):
1)      		        He He	                           He He
e|-3--3---5-5--5--|-2--2---3-3--3--|-3--3---5-5--5--|-2--2---3-3--3--|
B|-5--5---5-5--5--|-3--3---3-3--3--|-5--5---5-5--5--|-3--3---3-3--3--|
G|-4--4---5-5--5--|-2--2---4-4--4--|-4--4---5-5--5--|-2--2---4-4--4--|
D|----------------|----------------|----------------|----------------|
A|----------------|----------------|----------------|----------------|
E|----------------|----------------|----------------|----------------|

#2) Intro (Guitar 1):
1)      		        He He	                           He He
e|-x--x---x-x--x--|-x--x---x-x--x--|-x--x---x-x--x--|-x--x---x-x--x--|
B|-8--8---1010-10-|-7--7---8-8--8--|-8--8---1010-10-|-7--7---8-8--8--|
G|-9--9---9-9--9--|-7--7---7-7--7--|-9--9---9-9--9--|-7--7---7-7--7--|
D|-9--9---7-7--7--|-7--7---5-5--5--|-9--9---7-7--7--|-7--7---5-5--5--|
A|-7--7---x-x--x--|-5--5---x-x--x--|-7--7---x-x--x--|-5--5---x-x--x--|
E|-x--x---x-x--x--|-x--x---x-x--x--|-x--x---x-x--x--|-x--x---x-x--x--|
  \============================= X 4 =============================/
     (Guitar 2):
Repeat these chords using the same strumming
pattern as Guitar 1...
   Em       Am      D       G   
 |x22000||x0221x||xx0323||320033|
  \============ X 4 ===========/

Verse (Guitar 1):
Turn volume on guitar 1 down a bit...
1) When your on a holi-d-a-y, you can't find the words to say,  
e|-x--x---x-x--x--|-x--x---x-x--x--|-x--x---x-x--x--|-x--x---x-x--x--|
B|-x--x---1010-10-|-x--x---8-8--8--|-x--x---1010-10-|-x--x---8-8--8--|
G|-9--9---9-9--9--|-7--7---7-7--7--|-9--9---9-9--9--|-7--7---7-7--7--|
D|-9--9---7-7--7--|-7--7---5-5--5--|-9--9---7-7--7--|-7--7---5-5--5--|
A|-7--7---x-x--x--|-5--5---x-x--x--|-7--7---x-x--x--|-5--5---x-x--x--|
E|-x--x---x-x--x--|-x--x---x-x--x--|-x--x---x-x--x--|-x--x---x-x--x--|
  \============================= X 2 =============================/
2) All the things that come to y-o-u, I w-a-n-n-a fe-el it t-o-o,
e|-x--x---x-x--x--|-x--x---x-x--x--|-x--x---x-x--x--|-x--x---x-x--x--|
B|-x--x---1010-10-|-x--x---8-8--8--|-x--x---1010-10-|-x--x---8-8--8--|
G|-9--9---9-9--9--|-7--7---7-7--7--|-9--9---9-9--9--|-7--7---7-7--7--|
D|-9--9---7-7--7--|-7--7---5-5--5--|-9--9---7-7--7--|-7--7---5-5--5--|
A|-7--7---x-x--x--|-5--5---x-x--x--|-7--7---x-x--x--|-5--5---x-x--x--|
E|-x--x---x-x--x--|-x--x---x-x--x--|-x--x---x-x--x--|-x--x---x-x--x--|
  \============================= X 2 =============================/

      (Guitar 1):
1) On a I-sland in the s-u-n, we'll be playin' and havin' f-u-n,
e|----------------|----------------|----------------|----------------|
B|--8---8---8---8-|--7---7---8---8-|--8---8---8---8-|--7---7---8---8-|
G|9---9---9---9---|7---7---7---7---|9---9---9---9---|7---7---7---7---|
D|----------------|----------------|----------------|----------------|
A|----------------|----------------|----------------|----------------|
E|----------------|----------------|----------------|----------------|
2) And it makes me feel so fine i can't control my br-a-i-n,
e|----------------|----------------|----------------|----------------|
B|--8---8---8---8-|--7---7---8---8-|--8---8---8---8-|--7---7---8---8-|
G|9---9---9---9---|7---7---7---7---|9---9---9---9---|7---7---7---7---|
D|----------------|----------------|----------------|----------------|
A|----------------|----------------|----------------|----------------|
E|----------------|----------------|----------------|----------------|

      (Guitar 2):
   Em       Am      D       G   
 |x22000||x0221x||xx0323||320033|
  \============ X 8 ===========/

Pre-Verse (guitar 1):
1)      		         He He		                 He He
e|-x--x---x-x--x--|-x--x---x-x--x--|-x--x---x-x--x--|-x--x---x-x--x--|
B|-8--8---1010-10-|-7--7---8-8--8--|-8--8---1010-10-|-7--7---8-8--8--|
G|-9--9---9-9--9--|-7--7---7-7--7--|-9--9---9-9--9--|-7--7---7-7--7--|
D|-9--9---7-7--7--|-7--7---5-5--5--|-9--9---7-7--7--|-7--7---5-5--5--|
A|-7--7---x-x--x--|-5--5---x-x--x--|-7--7---x-x--x--|-5--5---x-x--x--|
E|-x--x---x-x--x--|-x--x---x-x--x--|-x--x---x-x--x--|-x--x---x-x--x--|
          (Guitar 2):
    Em       Am      D       G   
 |x22000||x0221x||xx0323||320033|
  \============ X 2 ===========/


Verse (Guitar 1):
Turn volume on guitar 1 down a bit...
1) When your on a golden s-e-a, you don't need no m-e-m-o-r-y,  
e|-x--x---x-x--x--|-x--x---x-x--x--|-x--x---x-x--x--|-x--x---x-x--x--|
B|-x--x---1010-10-|-x--x---8-8--8--|-x--x---1010-10-|-x--x---8-8--8--|
G|-9--9---9-9--9--|-7--7---7-7--7--|-9--9---9-9--9--|-7--7---7-7--7--|
D|-9--9---7-7--7--|-7--7---5-5--5--|-9--9---7-7--7--|-7--7---5-5--5--|
A|-7--7---x-x--x--|-5--5---x-x--x--|-7--7---x-x--x--|-5--5---x-x--x--|
E|-x--x---x-x--x--|-x--x---x-x--x--|-x--x---x-x--x--|-x--x---x-x--x--|
  \============================= X 2 =============================/
2) Just a place to call your o-w-n, as we drift into the z-o-n-e,
e|-x--x---x-x--x--|-x--x---x-x--x--|-x--x---x-x--x--|-x--x---x-x--x--|
B|-x--x---1010-10-|-x--x---8-8--8--|-x--x---1010-10-|-x--x---8-8--8--|
G|-9--9---9-9--9--|-7--7---7-7--7--|-9--9---9-9--9--|-7--7---7-7--7--|
D|-9--9---7-7--7--|-7--7---5-5--5--|-9--9---7-7--7--|-7--7---5-5--5--|
A|-7--7---x-x--x--|-5--5---x-x--x--|-7--7---x-x--x--|-5--5---x-x--x--|
E|-x--x---x-x--x--|-x--x---x-x--x--|-x--x---x-x--x--|-x--x---x-x--x--|
  \============================= X 2 =============================/

      (Guitar 1):
1) On a I-sland in the s-u-n, we'll be playin' and havin' f-u-n,
e|----------------|----------------|----------------|----------------|
B|--8---8---8---8-|--7---7---8---8-|--8---8---8---8-|--7---7---8---8-|
G|9---9---9---9---|7---7---7---7---|9---9---9---9---|7---7---7---7---|
D|----------------|----------------|----------------|----------------|
A|----------------|----------------|----------------|----------------|
E|----------------|----------------|----------------|----------------|
1) And it makes me feel so fine i can't control my br-a-i-n
e|----------------|----------------|----------------|----------------|
B|--8---8---8---8-|--7---7---8---8-|--8---8---8---8-|--7---7---8---8-|
G|9---9---9---9---|7---7---7---7---|9---9---9---9---|7---7---7---7---|
D|----------------|----------------|----------------|----------------|
A|----------------|----------------|----------------|----------------|
E|----------------|----------------|----------------|----------------|
          (Guitar 2):
    Em       Am      D       G   
 |x22000||x0221x||xx0323||320033|
  \============ X 8 ===========/

Interlude:
Both Guitars - Distortion on...
1) We'll run away toge-t-h-e-r, we'll spend some time fore-v-e-r,
e|----------------|----------------|----------------|----------------|
B|----------------|----------------|----------------|----------------|
G|7-7-7-7-7-7-7-7-|----------------|7-7-7-7-7-7-7-7-|----------------|
D|7-7-7-7-7-7-7-7-|5-5-5-5-5-5-5-5-|7-7-7-7-7-7-7-7-|5-5-5-5-5-5-5-5-|
A|5-5-5-5-5-5-5-5-|5-5-5-5-5-5-5-5-|5-5-5-5-5-5-5-5-|5-5-5-5-5-5-5-5-|
E|----------------|3-3-3-3-3-3-3-3-|----------------|3-3-3-3-3-3-3-3-|
2) We'll never feel bad a-n-y-m-o-r-e,		       He He
e|----------------|----------------|----------------|----------------|
B|----------------|----------------|----------------|----------------|
G|5-5-5-5-5-5-5-5-|----------------|7-7-7-7-7-7-7-7-|7-7-7-7-7-7-7-7-|
D|5-5-5-5-5-5-5-5-|7-7-7-7-7-7-7-7-|7-7-7-7-7-7-7-7-|7-7-7-7-7-7-7-7-|
A|3-3-3-3-3-3-3-3-|7-7-7-7-7-7-7-7-|5-5-5-5-5-5-5-5-|5-5-5-5-5-5-5-5-|
E|----------------|5-5-5-5-5-5-5-5-|----------------|----------------|


Pre-Verse (guitar 1):
                             He He	                         He He
e|-x--x---x-x--x--|-x--x---x-x--x--|-x--x---x-x--x--|-x--x---x-x--x--|
B|-8--8---1010-10-|-7--7---8-8--8--|-8--8---1010-10-|-7--7---8-8--8--|
G|-9--9---9-9--9--|-7--7---7-7--7--|-9--9---9-9--9--|-7--7---7-7--7--|
D|-9--9---7-7--7--|-7--7---5-5--5--|-9--9---7-7--7--|-7--7---5-5--5--|
A|-7--7---x-x--x--|-5--5---x-x--x--|-7--7---x-x--x--|-5--5---x-x--x--|
E|-x--x---x-x--x--|-x--x---x-x--x--|-x--x---x-x--x--|-x--x---x-x--x--|
          (Guitar 2):
    E       Am      D       G   
 |0221xx||x0221x||xx0323||320033|
  \============ X 2 ===========/


Solo:
Guitar 3 (distortion):
e|----------------|----------------|----------------|----------------|
B|----------------|----------------|----------------|----------------|
G|--------------7-|9-7v--5--4---5--|4vvv------------|----------------|
D|----------------|----------------|--------------7-|9-7v--5--4---5--|
A|----------------|----------------|----------------|----------------|
E|----------------|----------------|----------------|----------------|
Guitar 1 (clean):
e|-x--x---x-x--x--|-x--x---x-x--x--|-x--x---x-x--x--|-x--x---x-x--x--|
B|-x--x---1010-10-|-7--7---8-8--8--|-x--x---1010-10-|-7--7---8-8--8--|
G|-9--9---9-9--9--|-7--7---7-7--7--|-9--9---9-9--9--|-7--7---7-7--7--|
D|-9--9---7-7--7--|-7--7---5-5--5--|-9--9---7-7--7--|-7--7---5-5--5--|
A|-7--7---x-x--x--|-5--5---x-x--x--|-7--7---x-x--x--|-5--5---x-x--x--|
E|-x--x---x-x--x--|-x--x---x-x--x--|-x--x---x-x--x--|-x--x---x-x--x--|
(Guitar 2):
    Em       Am      D       G   
 |x22000||x0221x||xx0323||320033|
  \============ X 2 ===========/

Guitar 3 (distortion):
e|----------------|----------------|----------------|----------------|
B|----------------|----------------|----------------|----------------|
G|--------------7-|9-7v--5--4---5--|4vvv------------|----------------|
D|5vvv------------|----------------|--------------7-|9--7--5--4---5--|
A|----------------|----------------|----------------|----------------|
E|----------------|----------------|----------------|----------------|
Guitar 1 (clean):
e|-x--x---x-x--x--|-x--x---x-x--x--|-x--x---x-x--x--|-x--x---x-x--x--|
B|-x--x---1010-10-|-7--7---8-8--8--|-x--x---1010-10-|-7--7---8-8--8--|
G|-9--9---9-9--9--|-7--7---7-7--7--|-9--9---9-9--9--|-7--7---7-7--7--|
D|-9--9---7-7--7--|-7--7---5-5--5--|-9--9---7-7--7--|-7--7---5-5--5--|
A|-7--7---x-x--x--|-5--5---x-x--x--|-7--7---x-x--x--|-5--5---x-x--x--|
E|-x--x---x-x--x--|-x--x---x-x--x--|-x--x---x-x--x--|-x--x---x-x--x--|
(Guitar 2):
    Em       Am      D       G   
 |x22000||x0221x||xx0323||320033|
  \============ X 2 ===========/
Guitar 3 (distortion):
e|----------------|----------------|----------------|----------------|
B|----------------|----------------|----------------|----------------|
G|----------------|----------------|----------------|----------------|
D|5vvv~~~~~~~-----|----------------|----------------|----------------|
A|----------------|----------------|----------------|----------------|
E|----------------|----------------|----------------|----------------|
Guitar 1 (clean):
1) On a I-sland in the s-u-n, we'll be playin' and havin' f-u-n,
e|----------------|----------------|----------------|----------------|
B|--8---8---8---8-|--7---7---8---8-|--8---8---8---8-|--7---7---8---8-|
G|9---9---9---9---|7---7---7---7---|9---9---9---9---|7---7---7---7---|
D|----------------|----------------|----------------|----------------|
A|----------------|----------------|----------------|----------------|
E|----------------|----------------|----------------|----------------|
1) And it makes me feel so fine i can't control my br-a-i-n
e|----------------|----------------|----------------|----------------|
B|--8---8---8---8-|--7---7---8---8-|--8---8---8---8-|--7---7---8---8-|
G|9---9---9---9---|7---7---7---7---|9---9---9---9---|7---7---7---7---|
D|----------------|----------------|----------------|----------------|
A|----------------|----------------|----------------|----------------|
E|----------------|----------------|----------------|----------------|
(Guitar 2):
    Em       Am      D       G   
 |x22000||x0221x||xx0323||320033|
  \============ X 4 ===========/

Interlude:
Both Guitars - Distortion on...
1) We'll run away toge-t-h-e-r, we'll spend some time fore-v-e-r,
e|----------------|----------------|----------------|----------------|
B|----------------|----------------|----------------|----------------|
G|7-7-7-7-7-7-7-7-|----------------|7-7-7-7-7-7-7-7-|----------------|
D|7-7-7-7-7-7-7-7-|5-5-5-5-5-5-5-5-|7-7-7-7-7-7-7-7-|5-5-5-5-5-5-5-5-|
A|5-5-5-5-5-5-5-5-|5-5-5-5-5-5-5-5-|5-5-5-5-5-5-5-5-|5-5-5-5-5-5-5-5-|
E|----------------|3-3-3-3-3-3-3-3-|----------------|3-3-3-3-3-3-3-3-|
2) We'll never feel bad a-n-y-m-o-r-e,		       He He
e|----------------|----------------|----------------|----------------|
B|----------------|----------------|----------------|----------------|
G|5-5-5-5-5-5-5-5-|----------------|7-7-7-7-7-7-7-7-|7-7-7-7-7-7-7-7-|
D|5-5-5-5-5-5-5-5-|7-7-7-7-7-7-7-7-|7-7-7-7-7-7-7-7-|7-7-7-7-7-7-7-7-|
A|3-3-3-3-3-3-3-3-|7-7-7-7-7-7-7-7-|5-5-5-5-5-5-5-5-|5-5-5-5-5-5-5-5-|
E|----------------|5-5-5-5-5-5-5-5-|----------------|----------------|

Outro (Guitar 1):
1)                            He He 	                   He He
2)                            You'll never feel bad a-n-y-m-o-r-e,
e|-x--x---x-x--x--|-x--x---x-x--x--|-x--x---x-x--x--|-x--x---x-x--x--|
B|-8--8---1010-10-|-7--7---8-8--8--|-8--8---1010-10-|-7--7---8-8--8--|
G|-9--9---9-9--9--|-7--7---7-7--7--|-9--9---9-9--9--|-7--7---7-7--7--|
D|-9--9---7-7--7--|-7--7---5-5--5--|-9--9---7-7--7--|-7--7---5-5--5--|
A|-7--7---x-x--x--|-5--5---x-x--x--|-7--7---x-x--x--|-5--5---x-x--x--|
E|-x--x---x-x--x--|-x--x---x-x--x--|-x--x---x-x--x--|-x--x---x-x--x--|
  \======================== Slowly Fade Out ========================/
1)                          No, No                            No, No
e|----------------|----------------|----------------|----------------|
B|--8---8---8---8-|--7---7---8---8-|--8---8---8---8-|--7---7---8---8-|
G|9---9---9---9---|7---7---7---7---|9---9---9---9---|7---7---7---7---|
D|----------------|----------------|----------------|----------------|
A|----------------|----------------|----------------|----------------|
E|----------------|----------------|----------------|----------------|
  \======================== Slowly Fade Out ========================/
SLOWLY FADE OUT...
     (Guitar 2):
Repeat these chords using the same strumming
pattern as Guitar 1...
    Em       Am      D       G   
 |x22000||x0221x||xx0323||320033|
  \========= Fade Out =========/

Thats it. This is quite a fun song to play. It's really mellow
but it's also an amazing song. Not that being mellow is a bad 
thing though. Have fun learning it...
            
Submit corrections

comments powered by Disqus
↑ Back to top | Weezer Tabs for Island In The Sun. Lyrics for acoustic guitar and electric guitar. Tablatures and chords are parodies/interpretations of the original songs. You may use it for private study, scholarship, research or language learning purposes only