» » »

Weezer, Island In The Sun Bass tabs (ver.1)

Artists:  A B C D E F G H I J K L M N O P Q R S T U V W X Y Z # 

Island In The Sun Bass tabs (ver.1)

Weezer Tabs
 Rating:
4/5 (4 votes)
Island In The Sun lessons Tabs too difficult? Try these video lessons and learn fast
                Standard Tuning (E,A,D,G)

The song starts with some sliding on the E string. I'll let you work that out yourself,
then play this:
 
Verse:
G|-------------------------------
D|-------------------------------
A|--7-7-0-------5-5-0-----2-5----
E|--------5-5-0-------3-3--------


Verse Variation:
G|-------------------------------
D|-------------------------------
A|--7-7-0-------5-5-0------------
E|--------5-5-0-------3-3-3-0----


Chorus: ("We'll run away together...")
G|-----------------------------------------------
D|-----------------------------------------------
A|--5-5-5-5--------------5-5-5-5-----------------
E|----------3-3--3-3-3-0---------3-3--3-3-3-0----

G|---------------------------------------------------------------
D|---------------------------------------------------------------
A|--3-3-3-3-3-3-3-3--------------5-5--5-5-5-5--5-5--5-5-5-5h6----
E|------------------5-5--5-5-5-0---------------------------------

Song Order:
Slide on E
Verse x3
Verse Variation x1
Verse x1
Verse Variation x1
Verse x7
Verse Variation x1
Verse x1
Verse Variation x1
Verse x3
Verse Variation x1
Chorus x1
Verse x9
Verse Variation x1
Chorus x1
Verse (Repeat to fade)

That's it as far as I can tell. Please feel free to rate away to your heart's content. Cheers!
            
Submit corrections

comments powered by Disqus
↑ Back to top | Weezer Bass for Island In The Sun. Lyrics for acoustic guitar and electric guitar. Tablatures and chords are parodies/interpretations of the original songs. You may use it for private study, scholarship, research or language learning purposes only