» » »

Weezer, Hash Pipe Tabs (ver.6)

Artists:  A B C D E F G H I J K L M N O P Q R S T U V W X Y Z # 

Hash Pipe Tabs (ver.6)

Weezer Tabs
 Rating:
4/5 (4 votes)
Hash Pipe lessons Tabs too difficult? Try these video lessons and learn fast
                (Complete)
Hash Pipe

Weezer - (RiverS)


Bass :
g-------|
d-------|
a-------|
e-//7\\-|

Intro/Verse :

     PM----------------------------------------------\
e|------------------------------------------------------|
b|------------------------------------------------------|
g|o----------------------------------------------------o|
d|o--2-0--4-5--2-2--4-5--2-2--4-5--2-2--4-5--2-2--4-5--o|
a|---0-0--2-3--0-0--2-3--0-0--2-3--0-0--2-3--0-0--2-3---|
e|------------------------------------------------------|

Prechorus :
e|-----------------------------------------|------------|
b|-----------------------------------------|------------|
g|----7-7--7-7-7--7--7---------------------|o----------o|
d|----7-7--7-7-7--7--7-------e-t-c-.--.--.-|o--2-0-4-5-o|
a|----5-5--5-5-5--0--5---------------------|---0-0-2-3--|
e|----5-5--5-5-5--0------------------------|------------|
			Come on and kick me 

Chorus : 
e|--------------------------------------------------------------|
b|--------------------------------------------------------------|
g|-10-10-10-10-10-10-10-10-10-10-10-10-10-10-10-10--9-9-9-9-9-9-|
d|-10-10-10-10-10-10-10-10-10-10-10-10-10-10-10-10--9-9-9-9-9-9-|
a|-8--8--8--8--8--8--8--8---8--8--8--8--8--8--8--8--7-7-7-7-7-7-|
e|-8--8--8--8--8--8--8--8---8--8--8--8--8--8--8--8--7-7-7-7-7-7-|

e|---------------------------------------------------------|
b|---------------------------------------------------------|
g|-9-9-9-9-9-9-9-9-9-9-9-7-7-7-7-7-7-7-7-7-7-7-7-7-7-7-7---|
d|-9-9-9-9-9-9-9-9-9-9-9-7-7-7-7-7-7-7-7-7-7-7-7-7-7-7-7---|
a|-7-7-7-7-7-7-7-7-7-7-7-5-5-5-5-5-5-5-5-5-5-5-5-5-5-5-5---|
e|-7-7-7-7-7-7-7-7-7-7-7-5-5-5-5-5-5-5-5-5-5-5-5-5-5-5-5---|

e|---------------------------------------------------------|
b|---------------------------------------------------------|
g|-5-5-5-5-5-5-5-5-5-5-5-5-5-5-5-5-4-4-4-4-4-4--4-4-4-4-4--|
d|-5-5-5-5-5-5-5-5-5-5-5-5-5-5-5-5-4-4-4-4-4-4--4-4-4-4-4--|
a|-5-5-5-3-3-3-3-3-3-3-3-3-3-3-3-3-2-2-2-2-2-2--2-2-2-2-2--|
e|-3-3-3-3-3-3-3-3-3-3-3-3-3-3-3-3-2-2-2-2---2--2-2-2-2-2--|

Fill After 2nd Chorus :
guitar 1
e|------------------------------------------|
b|------------------------------------------|
g|--16-17-16-17-16-17-16-17-16-17-16-17-----|
d|----------------------------------------0-|
a|--14-15-14-15-14-15-14-15-14-15-14-15---0-|
e|----------------------------------------0-|
guitar 2
e|------------------------------------------|
b|------------------------------------------|
g|------------------------------------------|
d|---5-5-5-5-5-5-5-5-5-5-5-5-5-5-5-5-5-5--5-|
a|---5-5-5-5-5-5-5-5-5-5-5-5-5-5-5-5-5-5--5-|
e|---3-3-3-3-3-3-3-3-3-3-3-3-3-3-3-3-3-3--0-|

Solo w/ wah pedal :
  (in the studio, cuomo plays 2 note power chords,
   but live he plays this, Octaves)
e|---------------------------------------------------|
b|-13-13-13-13---12-12-12-12---10-10-10-10--8-8-8-8--|
g|---------------------------------------------------|
d|-10-10-10-10---9--9--9--9----7--7--7--7---5-5-5-5--|
a|---------------------------------------------------|
e|---------------------------------------------------|

e|-|--------------------------------------------------------|
b|-|-17-17-17-17---15-15-15-15---13-13-13-13---12-12-12-12--|
g|-|--------------------------------------------------------|
d|-|-14-14-14-14---12-12-12-12---10-10-10-10----9--9--9--9--|
a|-|--------------------------------------------------------|
e|-|--------------------------------------------------------|

e|-|---------------------------------------------------------|
b|-|-20-20-20-20---19-19-19-19---17-17-17-17---15-15-15-15---|
g|-|---------------------------------------------------------|
d|-|-17-17-17-17---16-16-16-16---14-14-14-14---12-12-12-12---|
a|-|---------------------------------------------------------|
e|-|---------------------------------------------------------|

e|--19-19-19-19---17-17-17-17---19-19-19-19---17-17-17-17--|
b|---------------------------------------------------------|
g|--16-16-16-16---14-14-14-14---16-16-16-16---14-14-14-14--|
d|---------------------------------------------------------|
a|---------------------------------------------------------|
e|---------------------------------------------------------|

I can't help my feelings, I'll go out of my mind
As bears come to get me 'cause they like my behind
I can't love my business if I can't get a trick
Down on Santa Monica where tricks are for kids

Oh, come on and kick me
Oh, come on and kick me
Come on and kick me
You've got your problems
I've got my ass wide
You've got your big G's
I've got my hash pipe

I can't help my boogies they get out of control
I know that you don't care but I want you to know
The knee-stocking flavor is a favorite treat
Of men that don't bother with the taste of a teat

Oh, come on and kick me
Oh, come on and kick me
Come on and kick me
You've got your problems
I've got my ass wide
You've got your big G's
I've got my hash pipe
I've got my hash pipe

Oh, come on and kick me
Oh, come on and kick me
Come on and kick me
You've got your problems
I've got my ass wide
You've got your big G's
I've got my hash pipe
I've got my hash pipe

I've got my hash pipe
I've got my hash pipe
            
Submit corrections

comments powered by Disqus
↑ Back to top | Weezer Tabs for Hash Pipe. Lyrics for acoustic guitar and electric guitar. Tablatures and chords are parodies/interpretations of the original songs. You may use it for private study, scholarship, research or language learning purposes only