>
 >
Falling For You

Falling For You Guitar Tabs

Weezer - Falling For You chords, tabs, tablatures, lyrics

Guitar lessons | Add/correct | Request | Top 50 tabs Artists:  A B C D E F G H I J K L M N O P Q R S T U V W X Y Z 0-9

Falling For You Guitar Tabs – Weezer

CD, Sheet music, Poster

Do you like Falling For You? Share with your friends now
Bass TabsChordsDrum TabsTabsTabs v2Ukulele
weezer
*Falling For You*
Tuning: 1/2 step down

Gtr. 1
E-16----12----
B----12----12-
G-------------
D-------------
A-------------
E-------------

Gtr. 2
E--------------------------------
B--------------------------------
G-------------6h8-9--------------
D-----6-7-9-6-------6-6----------
A---7-------------------9-7-9-7--
E--------------------------------

E--------------------------------
B--------------------------------
G---------4-6-4--6^8--6^8--6^8---
D--------------------------------
A---7-9-6------------------------
E--------------------------------

*******************************

START WHERE THE STAR IS

Gtr. 2 (staccato pick)
E-----------------
B-----------------
G-16-14-13-11-9-8-
D-----------------
A-14-12-11--9-7-6-
E-----------------

*******************************

Gtr. 2
E----16----14----16----14----|
B-12----12----12----12----12-|
G----------------------------|
D----------------------------|
A----------------------------|
E----------------------------|

*******************************

G# G# G# C#                     F#
            holy cow, i think i got one here
B                              G# G# G#  E E E 
  now just what am i s'posed to do?
C#*                   F#
  i got a number of irrational fears
B                             E
  that i'd like to share with you
C#                              F#
  first there's rules about old goats like me
B                                G# G# G# E E E 
  hangin' round with chicks like you
C#              F#
  but i do like you, and another one
G#*
  you say "like" too much
  G#  G# G#   A  A    A
  i'm shakin' at your touch
  B B    B   E   E   E    E  E 
  i like you way too much
  E  B B   B   B D    G   C  C    C   C 
  oh baby, i'm afraid i'm falling for you
  G#  G#  G#   A A A   
  i'd do 'bout anything
  A  A   A   B    B   B  E  E E E
  to get the hell out alive
  E  B  B  B B       B    B  B   E E E E D D D D 
  or maybe i would rather settle down
       G G G G A A A A 
  with you, oh

Gtr. 2
  D      C#       B   A       G
E--------------------------------
B--------------------------------
G-------------4-6-7--------------
D-----4-5-7-4-------4-4-2-0-2-0--
A---5----------------------------
E--------------------------------
       F#    A       B         C#
E--------------------------------
B--------------------------------
G---------2-4-2--4-6-4--8-8-6----
D---0-2-----------------------9--
A-------4------------------------
E--------------------------------

    
  holy moly baby, wouldn't you know it?

  just as i was bustin' loose

  i gotta go turn in my rock star card

  and get fat and old with you

  cuz i'm a burning candle, you're a gentle moth

  teaching me to lick a little bit kinder

  but i do like you, you're the lucky one

  no i'm the lucky one
  
  i'm shakin' at your touch
  
  i like you way too much
  
  oh baby, i'm afraid i'm falling for you
  
  i'd do 'bout anything
  
  to get the hell out alive
     
  or maybe i would rather settle down
  
  with you, oh


Gtr. 2

(for solo chords play bass line)

E----------------------------------
B----------------------------------
G-------------4-6-6-7--------------
D-----4-5-7-4---------4-4----------
A---5---------------------7-5-7-5--
E----------------------------------

E----------------------------------
B----------------------------------
G--------------------9-11-11-------
D---------7/9-7--------------------
A---5-7-4-------10-9---------------
E----------------------------------

E----------------------------------
B---------------12-10-15-----------
G---11h12-9-9/7--------------------
D----------------------------------
A----------------------------------
E----------------------------------

E---14-14-12-12-10-10----10--------------
B---------------------12----12\10-8-10-8-
G----------------------------------------
D----------------------------------------
A----------------------------------------
E----------------------------------------

E---------------15h17-----------------------------------------------------
B---------15-17-------15-17-15-------------------------15-----------------
G---14/16----------------------17-16----------17-16-16----16/14/12-14-12--
D------------------------------------14-16-17-----------------------------
A-------------------------------------------------------------------------
E-------------------------------------------------------------------------
    
(same chords only 3 frets up)
(Gtr. 2 use distortion pedal and mess around) 

E               A                   D            B B B  G  G  G
  holy sweet god***, you left your cello in the basement
E               A                 D                   G    
  i admired the glowing stars and tried to play a tune
E                           A 
  i can't believe how bad i suck, it's true
D                                
  what could you possible see in
B B B        G G     G
  little old 3 chord me?
E               A 
  but i do like you, and you like me too
B
  i'm ready, let's do it, baby!
  B   B  B    C  C    C
  i'm shakin' at your touch
  D D    D   G   G   G   G G 
  i like you way too much
  G  D D   D   D F    G#  D# D#   D#  D#
  oh baby, i'm afraid i'm falling for you
  B   B   B    B# B# B#
  i'd do 'bout anything
  D  D   D   G    G   G  G G G 
  to get the hell out alive
     D  D  D D       D    D  D   G 
  or maybe i would rather settle down
F      A#   D#
  with you
  G    F      
  down (down)
       A#   D#     G
  with you (you) oh





Comments


Popular Weezer tabs & chords
Hashpipe Chords
Paperface Chords
Burndt Jamb 2 Tabs
Glorious Day Tabs
Heart Songs 2 Tabs
In The Garage Live Tabs
Island In The Sun 3 Tabs
No One Else 2 Tabs
Perfect Situation Intro Tabs
The Girl Got Hot 2 Tabs


Song lyrics



↑ Back to top | Tablatures and chords are parodies/interpretations of the original songs. You may use it for private study, scholarship, research or language learning purposes only
© 2014 AZChords.com Contact us | Privacy policy | DMCA | Add/correct tabs | Request tabs | Top 50 tabs