>
 >
December

December Guitar Tabs

Weezer - December chords, tabs, tablatures, lyrics

Guitar lessons | Add/correct | Request | Top 50 tabs Artists:  A B C D E F G H I J K L M N O P Q R S T U V W X Y Z 0-9

December Guitar Tabs – Weezer

CD, Sheet music, Poster

Do you like December? Share with your friends now
Tabs
December by Weezer



verse
	G			C		repeat
E---------------------------------------------------------------------------------------
B---------------------------------------------5----------------------------------------
G-----------------4----------------------5--------5------------------------------------
D-------------5-----5----------------5-------------------------------------------------
A----------5-------------5--------3---------------------------------------------------   
E------3----------------------------------------------------------------------------

then its basically the same, but switch to A and D bar chords instead of G and C



December (music and words by Rivers Cuomo)
  


 notes: the whole song is based on the same arrpegio (correct term?).


 intro


  G (power Chords) C  (x2)


  e--------------------------------------------------
  b-------------------------------5------------------
  g----------4-----------------5----5--------------
  d-------5----5------------5---------5------------
  A-----5----------5-----3---------------5---------
  E--3------------------------------------------------




  Only Love.....               Can ease the pain
  G                               C                           Am            
        D
  
e---------------------------------------------------------------------------
b-------------------------------5----------------------------------------7---
g----------4-----------------5----5-----------------5---------------7----7---
d-------5----5------------5---------5------------7-----7--------7--------7-
A-----5----------5-----3---------------5-------7----------7--5---------------
E--3-------------------------------------------5----------------------------

  on the Walk, caught, in the rain
  G                  C           Am           D


   onlyyyyyyy looooooooove...     Will rememberrrrrrrrrrrrrr...
  Bm                                                Em
  
e---------------------------------------------------------------------------
b---------------------------------------------------8------------------8-----
g----------7------------------7----------------9-----9-----------9------9-----
d-------9----9------------9-----9---------9-----------9-----9------------9--
A-----9---------9-----9------------9---7-----------------7-------------------
E--7----------------7-----------------------------------------------------


   Darlin' faint                                in december
  Am                                                D

e---------------------------------------------------------------------------
b--------------------------------------------------7-----------------7-----
g----------5-----------------5----------------7-----7-----------7-----7-----
d-------7----7-----------7-----7---------7-----------7-----7-----------7--
A-----7---------7-----7-----------7---5-----------------5-------------------
E--5----------------5-----------------------------------------------------


   Only Love       only Love
    G              C    Am          D


   GGGGABCCCCBAGGGGGGGGGGGGGGG


   only Dreams....  (same as above - lyrics and music)
   G                   C          Am               D



  ****Bridge:


   It's Lonely Nights are rough   The mornings just as as tough
   C                                                 C


   we Give ourselves away    We give ourselves away
   G                                             G


    only Love
    D


   The rest is repetition.





Comments


Popular Weezer tabs & chords
Rainbow Connection 1 Chords
Cold Dark World Tabs
El Scorcho (Intro) Tabs
Island In The Sun 6 Tabs
Keep Fishing 5 Tabs
Peace 1 Tabs
Slob 1 Tabs
Keep Fishin 2 Ukulele
My Name Is Jonas Ukulele
Run Away Ukulele


Song lyrics



↑ Back to top | Tablatures and chords are parodies/interpretations of the original songs. You may use it for private study, scholarship, research or language learning purposes only
© 2014 AZChords.com Contact us | Privacy policy | DMCA | Add/correct tabs | Request tabs | Top 50 tabs