» » »

Crab Tabs (ver.1)

Artists:  A B C D E F G H I J K L M N O P Q R S T U V W X Y Z # 

Crab Tabs (ver.1)

Weezer
Rating:
0/5 (0 votes)

Hard to play? Try these video lessons and learn fast.
                PROPS GO TO: B.Chamberlain

Cool song. Had to tab it!

Tuning:Standard (eBGDAE)

Intro

e|---------------------------------------------------------------------------------|
B|---------------------------------------------------------------------------------|
G|-3-3-5-5-5-------------7-7-7-7-7-7-------------5-5-3-3-5-------------9-9-9-9-9-9-|
D|-3-3-5-5-5-2-2-2-2-2-2-7-7-7-7-7-7-7-7-7-7-7-7-5-5-3-3-5-7-7-7-7-7-7-9-9-9-9-9-9-|
A|-5-5-3-3-3-2-2-2-2-2-2-5-5-5-5-5-5-7-7-7-7-7-7-3-3-5-5-3-7-7-7-7-7-7-7-7-7-7-7-7-|
E|-----------0-0-0-0-0-0-------------5-5-5-5-5-5-----------5-5-5-5-5-5-------------|

Fill                Chorus
                 
e|-----------------|----------------------------------------------------------------|
B|-----------------|----------------------------------------------------------------|
G|-----------5-6-7-|-------------10-10-10-10---7-7-7-7-9-9-9-9-10-10-10-10-10-10-10-|
D|---4-5-6-7-------|---7-7-7-7---10-10-10-10---7-7-7-7-9-9-9-9-10-10-10-10-10-10-10-|
A|-2---------------|---7-7-7-7---8--8--8--8----5-5-5-5-7-7-7-7-8--8--8--8--8--8--8--|
E|-----------------|-0-5-5-5-5-0-------------0--------------------------------------|

e|-----------------------------------------|
B|-----------------------------------------|
G|---------------------------5-5-5-5-5-5-5-| End of Chorus
D|-2-2-2-2-2-2---5-5-5-5-5-5-5-5-5-5-5-5-5-|
A|-2-2-2-2-2-2---5-5-5-5-5-5-3-3-3-3-3-3-3-|
E|-0-0-0-0-0-0-0-3-3-3-3-3-3---------------|

Solo (Wah pedal)

e|-----------------------------------------------------------------------------|
B|-----------------------------------------------------------------------------|
G|-5----------5-------------------------9-7s-5--------9--10-----------------12-|
D|---7---5h-7---7---5h-7--7--5h-8p-7s-3--------7-5s-3-------12-10-13s-14-14----|
A|-----7----------7------------------------------------------------------------|
E|-----------------------------------------------------------------------------|

e|--------------------|
B|--------------------|
G|--------------------|
D|-12h-14--12s-10-10s-| End of Solo
A|--------------------|
E|--------------------|
            
Hard to play? Try these video lessons and learn fast. | Correct




comments powered by Disqus
↑ Back to top | Tablatures and chords are parodies/interpretations of the original songs. You may use it for private study, scholarship, research or language learning purposes only