>
 >
Cold Dark World

Cold Dark World Bass Tabs

Weezer - Cold Dark World chords, tabs, tablatures, lyrics

Guitar lessons | Add/correct | Request | Top 50 tabs Artists:  A B C D E F G H I J K L M N O P Q R S T U V W X Y Z 0-9

Cold Dark World Bass Tabs – Weezer

CD, Sheet music, Poster

Do you like Cold Dark World? Share with your friends now
Bass TabsBass Tabs v2TabsTabs v2

g|--16--16--16--16--16--16--16--16--16--16--16--16--16--16--16--16-|
a|14--14--14--14--14--14--14--14--14--14--14--14--14--14--14--14---|
d|-----------------------------------------------------------------|
e|-----------------------------------------------------------------|



g|--16--16--16--16--16--16--16--16--16--16--16--16--16--16--16--16-|
d|17--17--17--17--17--17--17--17--14--14--14--14--14--14--14--14---|
a|-----------------------------------------------------------------|
e|-----------------------------------------------------------------|


thats all there is for the intro and verse





Comments


Popular Weezer tabs & chords
No Other One 1 Bass Tabs
Surf Wax America 3 Bass Tabs
Buddy Holly 4 Chords
I Dont Want To Let You Go Chords
She Who Is Militant Chords
The Rat Race Chords
Buddy Holly 8 Tabs
Devotion Tabs
Hash Pipe Intro Tabs
Baby One More Time Ukulele


Song lyrics



↑ Back to top | Tablatures and chords are parodies/interpretations of the original songs. You may use it for private study, scholarship, research or language learning purposes only
© 2014 AZChords.com Contact us | Privacy policy | DMCA | Add/correct tabs | Request tabs | Top 50 tabs