» » »

Weezer, Cant Stop Partying Tabs (ver.1)

Artists:  A B C D E F G H I J K L M N O P Q R S T U V W X Y Z # 

Cant Stop Partying Tabs (ver.1)

Weezer Tabs
 Rating:
4/5 (4 votes)
Cant Stop Partying lessons Tabs too difficult? Try these video lessons and learn fast
1
                hi hope u enjoy the tab and the top tab is in standard E and the bottom 1 is half down step

Add some rotery if you have any :)

palm mute through verse

ill be back to fill any missing bits!


e|---------------------------------------------------------------------------|
B|---------------------------------------------------------------------------|
G|-------------------------7------------------------------9------------------|
D|--------4----------------7----x4---------7--------------9-----x4-----------|
A|--------4----x4----------5---------------7-----x4-------7------------------|
E|--------2--------------------------------5---------------------------------|

D#|---------------------------------------------------------------------------|
A#|---------------------------------------------------------------------------|
F#|----------------5-------------------------7--------------------------------|
C#|-----2----------5-----x4------5-----------7-----x4-------------------------|
G#|-----2----x4----3-------------5----x4-----5--------------------------------|
D#|-----0------------------------3--------------------------------------------|
            
Submit corrections

comments powered by Disqus
↑ Back to top | Weezer Tabs for Cant Stop Partying. Lyrics for acoustic guitar and electric guitar. 1 Tablatures and chords are parodies/interpretations of the original songs. You may use it for private study, scholarship, research or language learning purposes only