>
 >
Burnt Jamb 1

Burnt Jamb 1 Guitar Tabs

Weezer - Burnt Jamb 1 chords, tabs, tablatures, lyrics

Guitar lessons | Add/correct | Request | Top 50 tabs Artists:  A B C D E F G H I J K L M N O P Q R S T U V W X Y Z 0-9

Burnt Jamb 1 Guitar Tabs – Weezer

CD, Sheet music, Poster

Do you like Burnt Jamb 1? Share with your friends now
TabsTabs v2Tabs v3
Trabbed by        : 4LS

Tuning            : Standard

   I couldn't find a tab for this song anywhere on the internet, so I decided to
tab it myself. It sounds correct, and It's an easy song to play, so, here it is, enjoy.

[Intro](clean)
e|--4-4-4-4-4---4--2-2-2-2-2--5-5-5-5-5---5--4-4-4-4-4--------
B|--2-2-2-2-2---2--2-2-2-2-2--3-3-3-3-3---3--3-3-3-3-3--------
G|--2-2-2-2-2---2--2-2-2-2-2--4-4-4-4-4---4--4-4-4-4-4--------  x2
D|------------------------------------------------------------
A|------------------------------------------------------------
E|------------------------------------------------------------


[verse]  
           These are the chords that are played during the verses.

		I'm not quite sure what to call this chord, 
		so I decided to put B-9m. 
       A      Bm     C#m     D      B-9m      Bm 2      E
e|-------------x------x------x--------x---------x-------x-------------
B|-----2-------3------5------7-------14--------12-------9-------------
G|-----2-------4------6------7-------11--------11-------9-------------
D|-----2-------4------6------7--------9---------9-------9-------------
A|-------------x------x------5--------------------------7-------------
E|--------------------------------------------------------------------
                                 
                 Listen to the song to get the rhythm used during the verses.      
[Verse 1] (clean)
           (A)           (Bm)         (A)               (Bm)             (C#m) 
  Gothic flavor, how I miss you, if I only, ounce could kiss you, i'd be happy, 

         (D)        (B-9m)(Bm 2)       (E)           [Intro] x1
for one moment, of my liftime, I'd be there.


[Verse 2] (clean)
        (A)              (Bm)         (A)          (Bm)            (C#m) 
  And the water, running over, me is growing, ever colder, make me happy, for 

     (D)            ~~(B-9)(Bm 2)~~(E)
one moment, of my liftime, I'd be there.

		  ~~(PLAY BOTH OF THESE TWO CHORDS ONCE BETWEEN THE LYRIC LINES)~~

[After the second verse play:]

GUITAR 1 (distortion) (Bend the 5's on the B string up)
e|-----------------------------------------------------------------------
B|---------------5---------------5---------------5---------------5-------
G|-------------7---------------7---------------7---------------7---------
D|---7-5-7-5-7-------7-5-7-5-7-------7-5-7-5-7-------7-5-7-5-7-----------
A|-0---------------0-----------------------------------------------------
E|---------------------------------1---------------3---------------------

GUITAR 2 (distortion)
e|-----------------------------------------------------------------------
B|-----------------------------------------------------------------------
G|-----------------------------------------------------------------------
D|-7-7-7-7-7-7-7-7-7-7-7-7-7-7-7-7-3-3-3-3-3-3-3-3-5-5-5-5-5-5-5-5-------
A|-7-7-7-7-7-7-7-7-7-7-7-7-7-7-7-7-3-3-3-3-3-3-3-3-5-5-5-5-5-5-5-5-------
E|-5-5-5-5-5-5-5-5-5-5-5-5-5-5-5-5-1-1-1-1-1-1-1-1-3-3-3-3-3-3-3-3-------



GUITAR 1 (distortion)
e|----------------------
B|---------------5------
G|-------------7--------
D|---7-5-7-5-7----------
A|-0---------------0----
E|----------------------

Guitar 2 (distortion)
e|--------------------------------------------
B|--------------------------------------------
G|-------------------------------------------- If you listen closely, you can 
D|-7-7-7-7-7-7-7-7-7-7-7-7-7-7-7-5-4-3------ hear something that sounds like 
A|-7-7-7-7-7-7-7-7-7-7-7-7-7-7-7-5-4-3------ the last three chords played 
E|-5-5-5-5-5-5-5-5-5-5-5-5-5-5-5-3-2-1------ at the end.


Play Intro x1 (clean)


[Solo] (distortion)
Guitar 1
e|--------------------9-9-7-5--5-7--5h7-10-9--9h10-12-10--10h12-14-12h14p12-
B|--------------------------------------------------------------------------
G|--------------------------------------------------------------------------
D|-7-7-77---7-7/9---9-------------------------------------------------------
A|-------7--------7---------------------------------------------------------
E|--------------------------------------------------------------------------
You can kind of vibrato the notes on the D string and bend the notes on the
e string to make it sound like the solo on the recording.

Guitar 2 (clean and under solo, listen to song for the rhythm)
e|-x------------x-----------------x--------------------x--------------------
B|-5------------7-----------------5--------------------7--------------------
G|-6------------7-----------------6--------------------7--------------------
D|-6------------7-----------------6--------------------7--------------------
A|-x------------5-----------------x--------------------5--------------------
E|--------------------------------------------------------------------------

[After Solo] (clean)
          (C#m)             (D)           (Bm)           (D)
    Make me happy, for one moment, of my liftime, I'd be there.

[Play the distorted part that was played after the second verse x1]

[Intro] x4

[closing]

End the intro part on:  and then play:
e|---------4--------------5-----------4-----------4--5-------
B|---------2--------------0-----------0-----------0--0-------
G|---------2-------------------------------------------------
D|-----------------------------------------------------------
A|-----------------------------------------------------------
E|-----------------------------------------------------------


e|------5\4--4----------4/5--5--
B|------0\0--0----------0/0--0--
G|------------------------------
D|------------------------------
A|------------------------------
E|------------------------------


   Let the last note ring for awhile.... and your done. Well, thats the song,
I hope you have as much fun playing it as I did tabbing it.





Comments


Popular Weezer tabs & chords
If Youre Wondering If I Want You To I Want You To Bass Tabs
Space Rock Bass Tabs
Trainwrecks 1 Chords
Trampoline Chords
Trippin Down The Freeway Chords
Automatic Tabs
Crab 1 Tabs
No One Else Tabs
Unbreak My Heart Tabs
I Dont Want Your Loving Ukulele


Song lyrics



↑ Back to top | Tablatures and chords are parodies/interpretations of the original songs. You may use it for private study, scholarship, research or language learning purposes only
© 2014 AZChords.com Contact us | Privacy policy | DMCA | Add/correct tabs | Request tabs | Top 50 tabs