» » »

Weezer, Burndt Jamb Bass tabs (ver.1)

Artists:  A B C D E F G H I J K L M N O P Q R S T U V W X Y Z # 

Burndt Jamb Bass tabs (ver.1)

Weezer Tabs
 Rating:
4/5 (4 votes)
Burndt Jamb lessons Tabs too difficult? Try these video lessons and learn fast
                Weezer - Burndt Jamb


Tune it down 1/2 a step




in the beginning of the song scott hits this note
             then starts the song....
Eb:---5---

Intro/crazy little riff

Gb:-----------------------------------------------------|
Ab:--7----------------------7---------------------------|   do this
Db:-----4567-7--------2-2------4567-7-7h9-9p7--0-0--6-7-|     2 times.
Eb:5--5-------0-0--0-0-----5--5-------------------------|

Verse:

Gb:------------------------------------------------------>
Ab:------------------------------------------------------>
Db:---------------2--2--2--2-2--------------2--2--2--2-2->
Eb:5--5--5--5-5----------------5--5--5--5-5-------------->

  <-----------------------------------------------------|
  <-----------------------------------------------------|
  <-4--4--4--4-4-5--5--5--5-5-2--2--2--2-2--------------|
  <----------------------------------------5--5--5--5-5-|


....then go back into the crazy riff 1 time....

....and then the verse again.

Chorus:

Gb:--------------------------------------------->
Ab:--------------------------------------------->
Db:-----5-3-5-3-3-3-3-7-9-----5-3-5-3-3-3-3-7-9->
Eb:-5-5-------------------5-5------------------->


  <------------------------------------------------------------------|
  <------------------------------------------------------------------|
  <-----5-3-5-3-3-3-3-7-9-----5-3-5-3-3-3-3-7-9-----5-3-5-3-3-3-3-7-9|----
  <-3-3-------------------5-5-------------------5-5------------------|


do the crazy riff until the next chorus

after that chorus play crazy riff once then go right into
the verse....


Solo:

Gb:-------------------------------------------------->
Ab:--------------------------------------------------> (these are elevens
Db:-7-7-7-77-7-7-9-9-9-99-9-9-11-11-11-1111-11-11-12->    ....not ones)
Eb:-------------------------------------------------->

  <---------------------------------------------------->
  <-------14-14--------12-11----11---------12-12-12---->
  <-12-12-------12--12-------14----12--12-----------12->
  <---------------------------------------------------->

  <-----------------------------------------------------------------|
  <-----12-12-12--------11-11-11-12------12--11-11----11-11-12-11---|
  <-12-----------13--12--------------12------------12-------------12|
  <-----------------------------------------------------------------|


great song....
and an even greater band.

weez on.
            
Submit corrections

comments powered by Disqus
↑ Back to top | Weezer Bass for Burndt Jamb. Lyrics for acoustic guitar and electric guitar. Tablatures and chords are parodies/interpretations of the original songs. You may use it for private study, scholarship, research or language learning purposes only