» » »

Weezer, Burndt Jamb Tabs (ver.4)

Artists:  A B C D E F G H I J K L M N O P Q R S T U V W X Y Z # 

Burndt Jamb Tabs (ver.4)

Weezer Tabs
 Rating:
3.7/5 (6 votes)
Burndt Jamb lessons Tabs too difficult? Try these video lessons and learn fast
                
=========================
== ARTIST: Weezer      ==
== SONG: Burndt Jamb   ==
== TAB BY: Hefty Baggs ==
=========================

Riff 1 (Repeat) :

-|-4-4-4-4-4---4-2-2-2-2-2--5-5-5-5-5---5-4-4-4-4-4-|-
-|-2-2-2-2-2---2-2-2-2-2-2--3-3-3-3-3---3-3-3-3-3-3-|-
-|-2-2-2-2-2---2-2-2-2-2-2--4-4-4-4-4---4-4-4-4-4-4-|-
-|--------------------------------------------------|-
-|--------------------------------------------------|-
-|--------------------------------------------------|-

Verse:

-|-2-2-2-2-2-5-5-5-5-5-2-2-2-2-2-5-5-5-5-5-7-7-7-7-7-|-
-|-2-2-2-2-2-5-5-5-5-5-2-2-2-2-2-5-5-5-5-5-7-7-7-7-7-|
-|-2-2-2-2-2-5-5-5-5-5-2-2-2-2-2-5-5-5-5-5-7-7-7-7-7-|-
-|---------------------------------------------------|-
-|---------------------------------------------------|-
-|---------------------------------------------------|-

-|-9-9-9-9-9-10-10-10-10-12-10-10-12-10-10-12-10-|-
-|-9-9-9-9-9-10-10-10-10-10-10-10-10-10-10-10-10-|-
-|-9-9-9-9-9-10-10-10-10-10-10-10-10-10-10-10-10-|-
-|-----------------------------------------------|-
-|-----------------------------------------------|-
-|-----------------------------------------------|-

Chorus:
-|--------------------------------------|-
-|--------------5-7b---------------5-7b-|-
-|----------5-7-----------------5-7-----|-
-|-7--7-5-7------------7--7-5-7---------|-
-|-7-------------------7----------------|-
-|-5-------------------5----------------|-

-|---------------------------------------|-
-|-------------5-7b---------------5-7b---|-
-|----------5-7----------------5-7-------|-
-|-5--7-5-7-----------6--7-5-7-----------|-
-|-5------------------6------------------|-
-|-3------------------4------------------|-

-|-------------------------------|-
-|--------------5-7b-------------|-
-|----------5-7------------------|-
-|-7--7-5-7------------7-7-7-7-7-|-
-|-7-------------------7-7-7-7-7-|-
-|-5-------------------5-5-5-5-5-|-

Solo:

-|------------------------------5--------7---------9------------12b-|-
-|-------------------------7b---5------7-7-------9-9---------11-12b-|-
-|-----5b-----5b-7b-5----5--------7-5-7----9-7-9-----11-9-11--------|-
-|-7b-----7b-----------7--------------------------------------------|-
-|------------------------------------------------------------------|-
-|------------------------------------------------------------------|-
            
Submit corrections

comments powered by Disqus
↑ Back to top | Weezer Tabs for Burndt Jamb. Lyrics for acoustic guitar and electric guitar. Tablatures and chords are parodies/interpretations of the original songs. You may use it for private study, scholarship, research or language learning purposes only