» » »

Weezer, Burndt Jamb Bass tabs (ver.3)

Artists:  A B C D E F G H I J K L M N O P Q R S T U V W X Y Z # 

Burndt Jamb Bass tabs (ver.3)

Weezer Tabs
 Rating:
4/5 (4 votes)
Burndt Jamb lessons Tabs too difficult? Try these video lessons and learn fast
1
                
                                Burndt Jamb                                 


                                                                      Weezer
Bass



     W                   W                   E.  S E  E.  S S E  E  S  
G||-------------------|-------------------|---------------------------|
D||-------------------|-------------------|---------------------------|
A||-------------------|-------------------|----------------------7----|
E||-------------------|-------------------|--5---5-5------7-8-9-------|


  E.  S E  E.  S S S S S E      E.  S E  Q    S S S E  S  
-----------------------------|---------------------------|
-----------------------------|---------------------------|
--7-----7------7---7---7-----|----------------5-6---7----|
------7----------7-------7\--|--5---5-5------------------|


  E.  S E  Q    S E  S E        E  S S S S S S S S S S S S S S  
---------------------------||----------------------------------|
---------------------------||*---------------------------------|
--7-----7---------7--7-----||*---------------------------------|
------7---------7------7\--||---5----0-5---0-5---0-5-5---5-5-5-|


  E.  S S S S S S S S S S S S S    E  S S S S S S S S S S S S S S  
--------------------------------|---------------------------------|
--------------------------------|---------------------------------|
--------------------------------|---------------------------------|
--7---0-7---0-7---0-7-7---7-7-7-|--5----0-5---0-5---0-5-5---5-5-5-|


  E.  S S S S S S S S S S S S S    E.  S S S S S S S S S S S S S  
--------------------------------|--------------------------------|
--------------------------------|--------------------------------|
--------------------------------|--------------------------------|
--7---0-7---0-7---0-7-7---7-7-7-|--9---0-9---0-9---0-9-9---9-9-9-|


   E.  S  S S S  S S S  S  S S  S  S  S    E.  S S S S S S S S S S S S S  
----------------------------------------|--------------------------------|
----------------------------------------|--------------------------------|
----------------------------------------|--------------------------------|
--10---0-10---0-10---0-10-10---10-10-10-|--7---0-7---0-7---0-7-7---7-7-7-|


  E.  S E  S H        S    E.  S Q     E  S S S E  S  
------------------------|----------------------------|
------------------------|----------------------------|
------------------------|-----------------------7----|
--0---0-0--0-0--------L-|--5---5-5\-------7-9--------|


  E.  S E  Q    S E  S S S      E  S S S E  E  S S S S S S S  
----------------------------||-------------------------------|
---------------------------*||-------------------------------|
--7-----7---------7--7-----*||-------------------------------|
------7---------7------9-7--||--5--5-5-5-3--5--3-5-3-5-0-3-0-|


  E  S S S E  E  S S S S S S S    E  S S S E  E  S S S S S S S  
-------------------------------|-------------------------------|
-------------------------------|-------------------------------|
-------------------------------|-------------------------------|
--5--5-5-5-3--5--3-5-3-5-3-3-3-|--1--1-1-1-0--1--0-1-0-1-0-3-0-|


  E  S S S E  E  S S S S S S S    E  S S S E  E  S S S S S S S  
-------------------------------|-------------------------------|
-------------------------------|-------------------------------|
-------------------------------|-------------------------------|
--3--3-3-3-0--3--0-3-0-3-0-0-0-|--5--5-5-5-3--5--3-5-3-5-0-3-0-|


  E.  E  E  E  E.  Q        E.  S Q     E  S S S E  S  
-------------------------|----------------------------|
---------------7---9\----|----------------------------|
---------7--9------------|-----------------------7----|
--5---5------------------|--5---5-5\-------7-9--------|


  E.  S E  E.  S S E  S E      E  S S S S S S S S S S S S S S  
----------------------------|---------------------------------|
----------------------------|---------------------------------|
--7-----7------7---7--7-----|---------------------------------|
------7----------7------7\--|--5----0-5---0-5---0-5-5---5-5-5-|


  E.  S S S S S S S S S S S E     E.  S S S S S S S S S S S S S  
-------------------------------|--------------------------------|
-------------------------------|--------------------------------|
------------------------9-9----|--------------------------------|
--7---0-7---0-7---0-7-7-----7--|--5---0-5---0-5---0-5-5---5-5-5-|


  E.  S S S S S S S S S S S S S    E.  S S S S S S S S S S S S S  
--------------------------------|--------------------------------|
--------------------------------|--------------------------------|
--------------------------------|--------------------------------|
--7---0-7---0-7---0-7-7---7-7-7-|--9---0-9---0-9---0-9-9---9-9-9-|


   E.  S  S S S  S S S  S  S S  S  S  S    E.  S S S S S S S S S S S S S  
----------------------------------------|--------------------------------|
----------------------------------------|--------------------------------|
----------------------------------------|--------------------------------|
--10---0-10---0-10---0-10-10---10-10-10-|--7---0-7---0-7---0-7-7---7-7-7-|


  E.  S E  S E  S S S S S S S    E  S S S E  E  S S S S S S S  
------------------------------|-------------------------------|
------------------------------|-------------------------------|
------------------------------|-------------------------------|
--0---0-0--0-0--0-0-0-0-0-0-0-|--5--5-5-5-3--5--3-5-3-5-0-3-0-|


  E  S S S E  E  S S S S S S S    E  S S S E  E  S S S S S S S  
-------------------------------|-------------------------------|
-------------------------------|-------------------------------|
-------------------------------|-------------------------------|
--5--5-5-5-3--5--3-5-3-5-3-3-3-|--1--1-1-1-0--1--0-1-0-1-0-3-0-|


  E  S S S E  E  S S S S S S S    E  S S S E  E  S S S S S S S  
-------------------------------|-------------------------------|
-------------------------------|-------------------------------|
-------------------------------|-------------------------------|
--3--3-3-3-0--3--0-3-0-3-0-0-0-|--5--5-5-5-3--5--3-5-3-5-0-3-0-|


  E.  E  E  E  E  E  E.      E.  S Q     E  S S S E  S  
--------------------------|----------------------------|
---------------7--9-------|----------------------------|
---------7--9--------7\---|-----------------------7----|
--5---5-------------------|--5---5-5\-------7-9--------|


  E.  S E  E.  S S E  S S S    E.  S Q    E  S S S E  S  
----------------------------|---------------------------|
----------------------------|---------------------------|
--7-----7------7---7--7-----|----------------------7----|
------7----------7------7-5-|--5---5-5-------7-9--------|


  E.  S E  E.  S S E  S S S    E.  S Q    E  S S S E  S  
----------------------------|---------------------------|
----------------------------|---------------------------|
--7-----7------7---7--7-----|----------------------7----|
------7----------7------7-5-|--5---5-5-------7-9--------|


  E.  S E  E.  S S E  S E      E.  S Q    E  S S S E  S  
----------------------------|---------------------------|
----------------------------|---------------------------|
--7---7-7------7---9--9-----|----------------------7----|
-----------------7------7\--|--5---5-5-------7-9--------|


  E.  S E  E.  E  S S S S S    E.  E.  H        E     E.  E.  H        E   
----------------------------|----------------------|----------------------|
----------------------------|----------------------|----------------------|
--7-----7-------------------|------7---------------|------9---------------|
------7--------0--2---0-2-0-|--5-------5--------L--|--7-------7--------L--|


  E.   E.  H        E      E.   E.   H        E     H.           E  E   
-----------------------|-------------------------|---------------------|
-----------------------|-------------------------|---------------------|
------11---------------|-------12----------------|------------------5--|
--9--------9--------L--|--10--------10--------L--|--0------------L-----|


  E.  E.  H        E     W                  
----------------------|-------------------||
----------------------|-------------------||
--7---7---7--------L--|-------------------||
----------------------|--5----------------||




Duration Legend
---------------
W - whole
H - half
Q - quarter
E - 8th
S - 16th
T - 32nd
X - 64th
. - note dotted
|-n-|  - n-tuplets


Tablature Legend
----------------
L - tied note
x - dead note
g - grace note
(n) - ghost note
> - accentuded note
NH - natural harmonic
AH - artificial harmonic
TH - tapped harmonic
SH - semi harmonic
PH - pitch harmonic
h - hammer on
p - pull off
b - bend
br - bendRelease
pb - preBend
pbr - preBendRelease
brb - bendReleaseBend
\n/ - tremolo bar dip
\n - tremolo bar dive
-/n - tremolo bar Release up
/n\ - tremolo bar inverted dip
/n - tremolo bar return
-\n - tremolo bar Release down
S - shift slide
s - legato slide
/ -  slide into from below or out of upwards
\ -  slide into from above or out of downwards
~ - vibrato
W - wide vibrato
tr - trill
TP - tremolo picking
T - tapping
S - slap
P - pop
< - fade in
^ - brush up
v - brush down
            
Submit corrections

comments powered by Disqus
↑ Back to top | Weezer Bass for Burndt Jamb. Lyrics for acoustic guitar and electric guitar. 1 Tablatures and chords are parodies/interpretations of the original songs. You may use it for private study, scholarship, research or language learning purposes only