» » »

Weezer, Beverly Hills Tabs (ver.4)

Artists:  A B C D E F G H I J K L M N O P Q R S T U V W X Y Z # 

Beverly Hills Tabs (ver.4)

Weezer Tabs
Rating:
4/5 (25 votes)
Beverly Hills lessons Tabs too difficult? Try these video lessons and learn fast
                -------------------------------------------------------------------------------
                             BEVERLY HILLS-Weezer
-------------------------------------------------------------------------------
weezer message boards- oldweezer97's

I think this tab is right. all the others aren't.

Tuning:standard

VERSE
e|-------------------------------------------------------------------------------|
B|-------------------------------------------------------------------------------|
G|-------3-3-------3-3-------3-3--5-5----3b--------------------------------------|
D|--3-3--3-3--3-3--3-3--3-3--3-3--5-5--------------------------------------------|
A|--3-3--1-1--3-3--1-1--3-3--1-1--3-3--------------------------------------------|
E|--1-1-------1-1-------1-1------------------------------------------------------|

CHORUS
e|-------------------------------------------------------------------------------|
B|-------------------------------------------------------------------------------|
G|-------3-3--5-5--3-3-------3-3--5-5----3b--------------------------------------|
D|--3-3--3-3--5-5--3-3--3-3--3-3--5-5--------------------------------------------|
A|--3-3--1-1--3-3--1-1--3-3--1-1--3-3--------------------------------------------|
E|--1-1-----------------1-1------------------------------------------------------|

1st SOLO
e|-----------------------------4---------------------------------------------|
B|---------------------------------------------------------------------------|
G|---10-8-5-3-3-5-3-1---10-8-5---10--10-8-5-3-3-5-3-1-3-3-1------------------|
D|---------------------------------------------------------------------------|
A|---------------------------------------------------------------------------|
E|---------------------------------------------------------------------------|

2nd SOLO
e|-----------------------------------------------------------------------------|
B|-----------------------------------------------------------------------------|
G|----15-13-15b 15b 15b-13--13-15-15-15b-13-----13-15-13-15b-15b-13------------|
D|-------------------------------------------15---------------------15---------|
A|-----------------------------------------------------------------------------|
E|-----------------------------------------------------------------------------|

e|----------------------------------------------------------------------------|
B|----------------------------------------------------------------------------|
G|--13h15h13----13h15h13h-----13h15h13----------------------------------------|
D|-----------15------------15----------15-----3-------------------------------|
A|--------------------------------------------3-------------------------------|
E|--------------------------------------------1-------------------------------|

Just mess around on the 13th and 15th fret on the G string and the 15th fret on the D 
and it sounds cool. this is an awesome song. Very easy to play. Just e-mail me for questions.

                                    =w=

| /  slide up
| \  slide down
| h  hammer-on
| p  pull-off
| ~  vibrato
| +  harmonic
| x  Mute note
===============================================================================
            

comments powered by Disqus
↑ Back to top | Weezer Tabs for Beverly Hills. Lyrics for acoustic guitar and electric guitar. Tablatures and chords are parodies/interpretations of the original songs. You may use it for private study, scholarship, research or language learning purposes only