>
 >
36

36 Guitar Tabs

Weezer - 36 chords, tabs, tablatures, lyrics

Guitar lessons | Add/correct | Request | Top 50 tabs Artists:  A B C D E F G H I J K L M N O P Q R S T U V W X Y Z 0-9

36 Guitar Tabs – Weezer

CD, Sheet music, Poster

Do you like 36? Share with your friends now
Tabs
Weezer - 367 Words and Music by Rivers Cuomo
Album Five - future name "Ampleforth"

Tablature by Jonathan Judd ©2002




Intro Over laying Bar Chord Repetition(Below)
Bar Chord Sequence x8
e------------------------------------------
b------------------------------------------
g----------------------5---5---5---5---5---
d--5---5---5---5---5---5---5---5---5---5---
A--5---5---5---5---5---3---3---3---3---3---
E--3---3---3---3---3-----------------------


Intro Over laying Bar Chord Repetition(Above)--Enter after x2
e-------------------------------------------------
b-----------------12----12------------------------
g----7/9----12-------12------11---9---9---9-------
d----------------------------12---10--10--10------
A-------------------------------------------------
E-------------------------------------------------

e-------------------------------------------------
b-----------------12------------------------------
g----7/9----12-------12------11---9---9---9-------
d----------------------------12---10--10--10------
A-------------------------------------------------
E-------------------------------------------------

e-------------------------------------------------
b-----------------12------------------------------
g----7/9----12------------------------------------
d-------------------------------------------------
A-------------------------------------------------
E-------------------------------------------------

Bar Chords
e--------------------------------------------------------
b--------------------------------------------------------
g-----9---9---7---7---5---5---5---5---4---4---4---4------
d-----9---9---7---7---5---5---5---5---4---4---4---4------
A-----7---7---5---5---3---3---3---3---2---2---2---2------
E--------------------------------------------------------

e--------------------------------------------------------
b--------------------------------------------------------
g---9---9---9---9-------------------5---5---5/4/5---5---5
d---9---9---9---9---7---7---7---7---5---5---5/4/5---5---5
A---7---7---7---7---7---7---7---7---3---3---3/2/3---3---3
E-------------------5---5---5---5-----------------------


*Repeat From beginning minus Intro


Funky Bar Slide Thingy (4x)
e-----------------------------------------------------
b-----------------------------------------------------
g------10--/---12-----12---/--10--/---12----12--------
d------10-/----12-----12--/---10-/----12----12--------
A------8-/-----10-----10-/----8-/-----10----10--------
E-----------------------------------------------------

e-----------------------------------------------------
b-----------------------------------------------------
g------10--/---12-----12---/--10--/---12----12--------
d------10-/----12-----12--/---10-/----12----12--------
A------8-/-----10-----10-/----8-/-----10----10--------
E-----------------------------------------------------

e----------------------------------------------------
b----------------------------------------------------
g------8---/---10-----10---/--8---/---10----10-------
d------8--/----10-----10--/---8--/----10----10-------
A------6-/-----8-------8-/----6-/-----8-----8--------
E----------------------------------------------------

e----------------------------------------------------
b----------------------------------------------------
g------8---/---10-----10---/--8---/---10----10-------
d------8--/----10-----10--/---8--/----10----10-------
A------6-/-----8-------8-/----6-/-----8-----8--------
E----------------------------------------------------


After 3 Bar Slide thingies do this
e-----------------------------------------------------
b-----------------------------------------------------
g---15-15-15-15-15-15-15-15-14-14-14-14-14-14-14-14---
d-----------------------------------------------------
A-----------------------------------------------------
E-----------------------------------------------------

e-----------------------------------------------------
b-----------------------------------------------------
g--12-12-12-12-12-12-12-12----------------------------
d-----------------------------------------------------
A-----------------------------------------------------
E-----------------------------------------------------


SOLO with Bar chord Sequence in back ground
e------------------------------------------------------
b------------------------------------------------------
g-----------------9-----12--11--11h12-------------9----
d-9----9--10--12----12-----------------12----9---------
A------------------------------------------------------
E------------------------------------------------------

e-----------------------------------------------------
b-----------------------------------------------------
g------------12--12--12--11---11-11---12--12--12------
d-12---9----------------------------------------------
A--------10-------------------------------------------
E-----------------------------------------------------

e-----------------------------------------------------
b----------------------------------------12-12--13--10
g------11--11-11---12--12--12--11-12-14---------------
d-----------------------------------------------------
A-----------------------------------------------------
E-----------------------------------------------------

e-----------------------------------------------------
b-----------------------------------------------------
g---12-12-12--11-11--12-------------------------------
d-----------------------------------------------------
A-----------------------------------------------------
E-----------------------------------------------------

Now Pretty much repeat a bunch of stuff and you're finished.



Not bad uh?





Comments


Popular Weezer tabs & chords
Burndt Jamb 1 Bass Tabs
Suzanne 2 Bass Tabs
Buddy Holly Chords
Dope Nose Chords
Island In The Sun 5 Tabs
Surf Wax America 2 Tabs
Suzanne Tabs
Put Me Back Together Ukulele
Run Away Ukulele
The Christmas Song Ukulele


Song lyrics



↑ Back to top | Tablatures and chords are parodies/interpretations of the original songs. You may use it for private study, scholarship, research or language learning purposes only
© 2014 AZChords.com Contact us | Privacy policy | DMCA | Add/correct tabs | Request tabs | Top 50 tabs