» » »

Weeping Willows, Touch Me Bass tabs (ver.1)

Artists:  A B C D E F G H I J K L M N O P Q R S T U V W X Y Z # 

Touch Me Bass tabs (ver.1)

Weeping Willows Tabs
Rating:
0/5 (0 votes)
Touch Me lessons Tabs too difficult? Try these video lessons and learn fast
                Intro/chorus

|--------------------------------------------------------------------|
|-----7-9-7-9-----7-9-7-9-----------------7-9-7-9--------------------|
|-7-7----------------------------------------------------------------|
|-------------3-3---------5-5-5-7-5-7-8-8----------------------------|

Bridge

|--------------------------------------------------------------------|
|-----14/------------14/---------------------------------------------|
|-7-7-----7-7---7-7------7-7-----------------------------------------|
|--------------------------------------------------------------------|


Verse

|--------------------------------------------------------------------|
|-------------------------7-9-7-9------------------------------------|
|-7-7-7-7------------------------------------------------------------|
|---------7-7-7-7-8-8-8-8--------------------------------------------|


Bridge before last chorus (pick each note 8 times)

|------------------------------14---16-------------------------------|
|-14---12---10---9---14---17-----------------------------------------|
|--------------------------------------------------------------------|
|--------------------------------------------------------------------|
            
Submit corrections

comments powered by Disqus
↑ Back to top | Weeping Willows Bass for Touch Me. Lyrics for acoustic guitar and electric guitar. Tablatures and chords are parodies/interpretations of the original songs. You may use it for private study, scholarship, research or language learning purposes only