» » »

Take Me Away Tabs (ver.1)

Artists:  A B C D E F G H I J K L M N O P Q R S T U V W X Y Z # 

Take Me Away Tabs (ver.1)

Ween
Rating:
0/5 (0 votes)

Hard to play? Try these video lessons and learn fast.
                intro/ transition thing
e-13-------------------------------------------------|
b-14-------------------------------------------------|
g-15-------------------------------------------------|
d-15--strum a lot------------------------------------|
a-13-------------------------------------------------|
E-13-------------------------------------------------|


Verse
e-----7---5--5-5--4--4--4/-6--6-6------------------|
b-----9---7--7-7--6--6--6/-8--8-8------------------|
g-----8---6--6-6--5--5--5/-7--7-7------------------|
d-----9---7--7-7--6--6--6/-8--8-8------------------|
a-----7---5--5-5--4--4--4/-6--6-6------------------|
E--0-----------------------------------------------|

repeat that alot then

e-----------------------------------------|
b-----------------------------------------|
g-----2-----------------------------------|repeat that until the end of
d--2--2-----------------------------------|section
a--2--0-----------------------------------|
E--0--------------------------------------|
            
Hard to play? Try these video lessons and learn fast. | Correct




comments powered by Disqus
↑ Back to top | Tablatures and chords are parodies/interpretations of the original songs. You may use it for private study, scholarship, research or language learning purposes only