» » »

Ween, Slow Down Boy Tabs (ver.1)

Artists:  A B C D E F G H I J K L M N O P Q R S T U V W X Y Z # 

Slow Down Boy Tabs (ver.1)

Ween Tabs
 Rating:
4/5 (4 votes)
Slow Down Boy lessons Tabs too difficult? Try these video lessons and learn fast
                Slow dow boy from the friends EP - Words and music by Ween


Intro and Chorus :

     G   Bm   C    Am   D

E||--3---2----0----0----2------||
B||--3---3----1----1----3------||
G||--4---4----0----2----2------||
D||--5---4----2----2----0------||
A||--5---2----3----0----x------||
E||--3---x----x----x----x------||


Verse :

     Am   Dsus2        Am   Dsus2

E||--0-------------0---0----------0--------||
B||--1----------3------1-------------3-----||
G||--2-------2---------2-------2-----------||
D||--2----0------------2----0--------------||
A||--0-----------------0-------------------||
E||--x-----------------x-------------------||


Pré Solo :

     Bm    C    Bm    C    Bm    C    C    D

E||--2-----0----2-----0----2-----0----0----2------||
B||--3-----1----3-----1----3-----1----1----3------||
G||--4-----0----4-----0----4-----0----0----2------||
D||--4-----2----4-----2----4-----2----2----0------||
A||--2-----3----2-----3----2-----3----3----x------||
E||--x-----x----x-----x----x-----x----x----x------||


Solo :


E||------------------------------------------------------------------------------------------------------------------------||
B||--------------------------------------------------------------------------------------------------------------------12--||
G||--------------------------------------------------------------------------------------------------------12-11-----------||
D||-----------------------------------8h9---9-10-9-10-9-10-9----------------------------------------12-14--------12--------||
A||---------------5-7--7s10s9--------------------------------10-10s12----10------9--10----10-10s14------------------14-----||
E||--3----3--3s7---------------10--7-----------------------------------------10--------------------------------------------||

E||-----------------------------------||
B||--12-13-12-13-12-13-12-------------||
G||-----------------------12-12s14----||
D||-----------------------------------||
A||-----------------------------------||
E||-----------------------------------||
            
Submit corrections

comments powered by Disqus
↑ Back to top | Ween Tabs for Slow Down Boy. Lyrics for acoustic guitar and electric guitar. Tablatures and chords are parodies/interpretations of the original songs. You may use it for private study, scholarship, research or language learning purposes only