» » »

Ween, Mutilated Lips Tabs (ver.2)

Artists:  A B C D E F G H I J K L M N O P Q R S T U V W X Y Z # 

Mutilated Lips Tabs (ver.2)

Ween Tabs
 Rating:
4/5 (4 votes)
Mutilated Lips lessons Tabs too difficult? Try these video lessons and learn fast
1
                Legend: * Palm Mute
        ~ Let Ring
        And thats all you will need :)

    Most people will tell you that to play this or other Ween tunes you will need to 
drop your A string, fortunately this is one of the songs you can easily get away with 
playing in standard tuning :) it is as follows:

Verse: "I lick my brain in silence..."
e|---0--0-0-0--00----5--5-5-5--55-|
B|---0--0-0-0--00----7--7-7-7--77-|
G|---8--8-8-8--88----7--7-7-7--77-|Repeat
D|---9--9-9-9--99----0--0-0-0--00-|
A|---7--7-7-7--77-0~--------------|
E|0~------------------------------|

Bridge: "I said please calm it down..."
e|---0------0------5--5-5-5--55-|
B|-----------------7--7-7-7--77-|
G|--8-8----8-8-----7--7-7-7--77-|
D|-9---9--9---9----0--0-0-0--00-|
A|7-----77-----70~--------------|
E|------------------------------|

Chorus: "Mutilated lips, give a kiss on the wrist..."
e|--10-10-x-5-555-x-3-3-3-x-0-000---|
B|--12-12-x-7-777-x-5-5-5-x-2-222-x-|
G|--12-12-x-7-777-x-5-5-5-x-2-222-x-|
D|0~------------------------2-222-x-|
A|--------------------------0-000---|
E|----------------------------------|

Timing is not perfect! Listen to the song! :)
            
Submit corrections

comments powered by Disqus
↑ Back to top | Ween Tabs for Mutilated Lips. Lyrics for acoustic guitar and electric guitar. 1 Tablatures and chords are parodies/interpretations of the original songs. You may use it for private study, scholarship, research or language learning purposes only