» » »

Mutilated Lips Tabs (ver.1)

Artists:  A B C D E F G H I J K L M N O P Q R S T U V W X Y Z # 

Mutilated Lips Tabs (ver.1)

Ween
Rating:
5/5 (2 votes)

Hard to play? Try these video lessons and learn fast.
                
A string is tuned down to a G

just play along with the song to figure out the rhythm

i lick my brain in silence...
E--------0---------------------------5----|
B--------0---------------------------7----|
G--------8---------------------------7----|
D--------9---------------------------0----|
G--------9---------------------------0----|
E--------0--------------------------------|

i said please calm it down....
e----5------------------------------0-----------0-----------|
b----7------------------------------------------------------|
g----7----------------------------8---8-------8---8-------8-|
d----0--------------------------9-------9---9-------9---9---|
g----0------------------------9-----------9-----------9-----|
e----------------------------(0)---------(0)---------(0)----|
play that part with either just the 9 or the open e string. what ever sounds better to you.


mutilated lips....
e--------10/---5--------------3--------------------|
b--------12/---7--------------5--------------------|
g--------12/---7--------------5-------------0h2----|
d----0---0-----0--------------0-------------0h2----|
g----0---0-----0--------------0-------------0h2----|
e----0--------------------------------------0-0----|

this is how i play the solo.

e------------------------------------------------| x2
b--------6--8--6~------6--8--8b9b8v--------------|
g--------x---------------------------------------|
d--------x---------------------------------------|
g------------------------------------------------|
e------------------------------------------------|

e------------------------------------------------|
b------6--8--6--8--6--8--8b9b8-------4v----------|
g------x-----------------------------------------|
d------x-----------------------------------------|
g------------------------------------------------|
e------------------------------------------------|

e------------------------------------------------|
b------6--8--6--8--6--8--8b9---------------------|
g------x-----------------------------------------|
d------x-----------------------------------------|
g------------------------------------------------|
e------------------------------------------------|

e------------------------------------------------|
b---4---4---4---4--6-----------------------------|
g--------------------5v---3/2-2-2h3-2v-----------|
d------------------------------------------------|
g------------------------------------------------|
e------------------------------------------------|

e------------------------------------------------|
b--3/4--4---4---4--6-----------------------------|
g--------------------5v----5/17v-----------------|
d------------------------------------------------|
g------------------------------------------------|
e------------------------------------------------|


I lick my brain in silence
rather squeeze my head instead
midget man provoking violence
listen not to what I said

I said please calm it down
everything is turning brown

Mutilated lips give a kiss on the wrist
of the worm like tips of tentacles expanding
in my mind, I'm fine, accepting only fresh brine
you can get another drop of this, yeah you wish

Laughing lady living lover
ooh you sassy frassy lassie
find me the skull of Haile Sellase, I
give me shoes so I can tapsy
tap all over this big world
take my hand you ugly girl

Mutilated lips give a kiss on the wrist
of the worm like tips of tentacles expanding
in my mind, I'm fine, accepting only fresh brine
you can get another drop of this, yeah you wish
            
Hard to play? Try these video lessons and learn fast. | Correct




comments powered by Disqus
↑ Back to top | Tablatures and chords are parodies/interpretations of the original songs. You may use it for private study, scholarship, research or language learning purposes only