» » »

Ween, Monique The Freak Tabs (ver.1)

Artists:  A B C D E F G H I J K L M N O P Q R S T U V W X Y Z # 

Monique The Freak Tabs (ver.1)

Ween Tabs
 Rating:
4/5 (4 votes)
Monique The Freak lessons Tabs too difficult? Try these video lessons and learn fast
                

Intro/Main Riff: (Power chords with distortion)
   A A#B D B   A A  A B
E:------------------------:
B:------------------------:
G:-------7----------------:
D:-7-8-9-7-9-x-7-7--7-9---:
A:-7-8-9-5-9-x-7-7--7-9---:
E:-5-6-7---7-x-5-5--5-7---: (x4)

Verse 1: (Clean, strum only the D, G, B, and high E strings)
B         A
Oh mercy, girl you lookin' sexy
Movin' on across the floor
Oh mercy, girl you lookin' sexy
Saw you comin' through the door

B         A
Oh baby, such a fine lady
Talkin' and your voice is deep
Oh baby, such a fine lady
I can hardly speak - Monique!

Chorus: (Main Riff with distortion)
She's a freak, Monique
I think I'm gonna tweek
She's a freak, Monique
I can hardly speak
(X2)

Verse 2: (Clean, strum only the D, G, B, and high E strings)
B          A
Sexy baby, girl you drive me crazy
Let me take you for a drive
Sexy baby, girl you drive me crazy
My body comes to life - body comes to life
B                     A
Got to make you mine, girl you so divine
Oh there's no use tryin', make ya feel so fine
Gotta have you girl, take you 'round the world
Make ya start to swirl, such a lovely girl

(Repeat Chorus)

Bridge Riff x4:
E:----------------------------------------------------------------------------|
B:----------------------------------------------------------------------------|
G:-7-7-----7-7-----7-7-----7-9-10b-9-7-9-7---7-7-----7-7-----7-7--------------|
D:-----9-9-----9-9-----9-9-----------------9-----9-9-----9-9-----9-9-7-7-8-9\-|
A:----------------------------------------------------------------------------|
E:----------------------------------------------------------------------------|

(Main riff repeats over improv solo)
(repeat bridge riff x4)

Verse 3:
B          A
Ooooooohh Freak!
Freaky girl, freaky girl, freaky girl

(Repeat Verse 2)
(Repeat Chorus)
(Repeat Bridge Riff x2)

That's it! Please rate and send me comments, corrections, or requests for other ween tabs!
Peace.
            
Submit corrections

comments powered by Disqus
↑ Back to top | Ween Tabs for Monique The Freak. Lyrics for acoustic guitar and electric guitar. Tablatures and chords are parodies/interpretations of the original songs. You may use it for private study, scholarship, research or language learning purposes only