>
 >
Joppa Road

Joppa Road Guitar Tabs

Ween - Joppa Road chords, tabs, tablatures, lyrics

Guitar lessons | Add/correct | Request | Top 50 tabs Artists:  A B C D E F G H I J K L M N O P Q R S T U V W X Y Z 0-9

Joppa Road Guitar Tabs – Ween

CD, Sheet music, Poster

Do you like Joppa Road? Share with your friends now
Tabs

This is the solo from the Acoustic Trenton 2/7/02 show (the 1st time they played it), 
I'm pretty sure this is right, I'm sorry I couldn't transcribe the rythm, you should 
to the song, I hope I didn't forget any note somewhere :) Anyway this should help !
Enjoy !

E||------------------------------------------------------------------------8--8---------------------------------------------|
B||--------------------------------------------------------------8--10--8--------10--8----8---------------------------------|
G||-----------------5--5-------5--7br-5------5-----5---5--7--9--------------------------------10--9--10--9-------9---9-9----|
D||--------3/-5--7--------7---------------7-----7------------------------------------------------------------10-----------10|
A||--3/-5-------------------------------------------------------------------------------------------------------------------|
E||-------------------------------------------------------------------------------------------------------------------------|


E||----------------------------------------------------------------------------------------------------12-----------------|
B||---------------------------------------------------------------------------------------13-----13-15b--15r-13----13-13--|
G||--9-------9-------9-----9----9--------------------------------------------------12--14----14-----------------14--------|
D||-------------10-----------10--------------------------------10---12--10--12/14-----------------------------------------|
A||-----10--------------10--------10--------------10--12--10--------------------------------------------------------------|
E||-----------------------------------(9)-10--12--------------------------------------------------------------------------|


E||--------------------------------------------------------------3--1--0---------------------------------------------------|
B||-15b--15b--15b--15b-15p13----15b-15b----15r------15/----------x--------3--1--0--------0-1/3--3/5--5/6--6/8-8--10--8-----|
G||--------------------------14----------------------------------------------------2(p0)-----------------------------------|
D||------------------------------------------------------------------------------------------------------------------------|
A||------------------------------------------------------------------------------------------------------------------------|
E||------------------------------------------------------------------------------------------------------------------------|


E||---------------------------10br-8-----8---------------------------------------------------------------------------------|
B||--10--8--10--8~--8--10--8---------10--x-10-8----------------------------------------------------------------------------|
G||-----------------------------------------------10-9----9-10--10/12/10--10-9-10-9--------------------------12--------12--|
D||----------------------------------------------------10---------------------------10----------10--12-12/14-----14-14-----|
A||-------------------------------------------------------------------------------------10--12-----------------------------|
E||------------------------------------------------------------------------------------------------------------------------|


E||------------------------------------------------------------------------------8--7--5-------------------------------|
B||----------13------13-----13---13-----13--15br-13-----13-----13-----13/--------x--------8--6--5----------------------|
G||-----12--------14-----14----------14-------------14------14-----14------------------------------7--5--4--5----------|
D||--14----------------------------------------------------------------------------------------------------------------|
A||--------------------------------------------------------------------------------------------------------------------|
E||--------------------------------------------------------------------------------------------------------------------|





Comments


Popular Ween tabs & chords
Booze Me Up And Get Me High Chords
Ocean Man Chords
Buckingham Green (Solo) Tabs
Don't Shit Where You Eat 1 Tabs
Ocean Man Tabs
She Fucks Me Tabs
What Deaner Was Tabs
Object Ukulele
Sarah Ukulele
Tried And True Ukulele


Song lyrics



↑ Back to top | Tablatures and chords are parodies/interpretations of the original songs. You may use it for private study, scholarship, research or language learning purposes only
© 2014 AZChords.com Contact us | Privacy policy | DMCA | Add/correct tabs | Request tabs | Top 50 tabs