» » »

Ween, It's Gonna Be A Long Night Tabs (ver.1)

Artists:  A B C D E F G H I J K L M N O P Q R S T U V W X Y Z # 

It's Gonna Be A Long Night Tabs (ver.1)

Ween Tabs
Rating:
0/5 (0 votes)
It's Gonna Be A Long Night lessons Tabs too difficult? Try these video lessons and learn fast
                ------------------------------------------------------------------------------
------------------------------------------------------------------------------

Tuning: Standard EADGBE

Intro (2x)
    E     Db
e----------------------|
B----------------------|
G---9-----6------------|
D---9-----6------------|
A---7-----4------------|
E----------------------|

with this over it
e----------------------|
B----------------------|
G--12-----9------------|
D--14-----11-----------|
A----------------------|
E----------------------|

Main riff
Guitar 1
    E                                      G    A
e--------------------------------------------------------------------|
B--------------------------------------------------------------------|
G--------------------------------------------------------------------|
D---2-------------0---2^0------------2-----5----7--------------------|
A-------------2------------2^0-------2-----5----7--------------------|
E------0---4--------------------3^---0-----3----5--------------------|

the second guitar over the main riff before the vocals goes something like
this
e----------------------------------------------------------------------------|
B---12--12-12-12-12--14-12----12------------12--12-12-12-12--14-12-----------|
G---12--12-12-12-12--14-12----12------------12--12-12-12-12--14-12-----------|
D--------------------------14---------------------------------------14-12----|
A----------------------------------------------------------------------------|
E----------------------------------------------------------------------------|


"Don't call a doctor.... "

  E5      A5      C5      G5                       E5      A5      C5      G5
e-----------------------------------------------------------------------------|
B-----------------------------------------------------------------------------|
G-----------------------------------------------------------------------------|
D-2-------7------9/10------5-----------------------2-------7------9/10------5-|
A-2-------7------9/10------5-----------------------2-------7------9/10------5-|
E-0-------5------7/8-------3-----------------------0-------5------7/8-------3-|


Unison bends over the E - A - C- G part
e-----------------------------------------------------------------------------|
B--5------10-------8------3------------------------5------10-------8------15--|
G--7b-----12b-----10b-----5b-----------------------7b-----12b-----10b-----17--|b
D-----------------------------------------------------------------------------|
A-----------------------------------------------------------------------------|
E-----------------------------------------------------------------------------|

* the b after the note means to bend that b**ch.

when repeating "It's gonna be a long night.... "

    E      Db      E      Db      E      Db      G     B
e--------------------------------------------------------------------|
B--------------------------------------------------------------------|
G---9-----6--------9-----6--------9-----6----------------------------|
D---9-----6--------9-----6--------9-----6--------5-----9-------------|
A---7-----4--------7-----4--------7-----4--------5-----9-------------|
E------------------------------------------------3-----7-------------|

The last time, when there is a lead guitar over the E-Db part
it sounds like this country bend
e--------------------------------------------------------------------|
B---15---15----------------------------------------------------------|
G---14b--14----------------------------------------------------------|
D--------------------------------------------------------------------|
A--------------------------------------------------------------------|
E--------------------------------------------------------------------|
* the b after the 14 means to bend that b**ch.

The last time the riff ends on the E7#9

    E                                                      E7#9
e--------------------------------------------------------------------|
B------------------------------------------------------------8-------|
G------------------------------------------------------------7-------|
D---2-------------0---2^0------------------------------------6-------|
A-------------2------------2^0----------(slide up and down)--7-------|
E------0---4--------------------3^---0-----------------------0-------|

then another guitar is there over the rock and roll ending,
I think I heard the part at the end sump'n like
e--------------------------------------------------------------------|
B------------------------------------------/17-\---------------------|
G--12--14-15-16-----16---17--16--14--16------------------------------|
D--------------------------------------------------------------------|
A--10--12-13-14------------------------------------------------------|
E--------------------------------------------------------------------|

Boognish Bless
            

comments powered by Disqus
↑ Back to top | Ween Tabs for It's Gonna Be A Long Night. Lyrics for acoustic guitar and electric guitar. Tablatures and chords are parodies/interpretations of the original songs. You may use it for private study, scholarship, research or language learning purposes only