» » »

Ween, Israel Tabs (ver.1)

Artists:  A B C D E F G H I J K L M N O P Q R S T U V W X Y Z # 

Israel Tabs (ver.1)

Ween Tabs
Rating:
0/5 (0 votes)
Hard to play? Try these video lessons and learn fast.
                
Tuning: Standard

e|-----------------------------------|
B|-----------10--8-------------------|
G|--------7--------10-9---9-9b-10-12-|
D|-7--10-----------------------------|
A|-----------------------------------|
E|-----------------------------------|

e|---------------------------------|
B|-----------10--8-----------------|
G|--------7--------10-9---9-9b-7-9-|
D|-7--10---------------------------|
A|---------------------------------|
E|---------------------------------|

e|-------------------------------------|
B|-----------10--8---------------------|
G|--------7--------10-9---9-10-9-10-12-|
D|-7--10-------------------------------|
A|-------------------------------------|
E|-------------------------------------|

e|-------------------------------------|
B|-------------8/10--8-----------------|
G|--------7------------10-9---9-9b-7-9-|
D|-7--10----10-------------------------|
A|-------------------------------------|
E|-------------------------------------|


e|-------------17--15-----------------------|
B|---------15---------18-17--17-18-17-18-20-|
G|-14--17-----------------------------------|
D|------------------------------------------|
A|------------------------------------------|
E|------------------------------------------|


e|-------------17--15------------------------|
B|---------15---------18-17--17-17b-15-17--b-|
G|-14--17------------------------------------|
D|-------------------------------------------|
A|-------------------------------------------|
E|-------------------------------------------|

e|-------------17--15------------------------|
B|---------15---------18-17---17-18-17-18-20-|
G|-14--17------------------------------------|
D|-------------------------------------------|
A|-------------------------------------------|
E|-------------------------------------------|

e|-------------17--15--------------------------|
B|---------15---------18-17--17b-15-17b-15-17b-|
G|-14--17--------------------------------------|
D|---------------------------------------------|
A|---------------------------------------------|
E|---------------------------------------------|



e|-----17------17----17-19-20-19-17-15-|
B|-15------15--------------------------|
G|-------------------------------------|
D|-------------------------------------|
A|-------------------------------------|
E|-------------------------------------|

e|-15-17-15-----------------------------------|
B|----------18-17---17b-15-17b-15-17b-17b-17b-|
G|--------------------------------------------|
D|--------------------------------------------|
A|--------------------------------------------|
E|--------------------------------------------|

e|-----17------17----17-19-20-19-17-15-|
B|-15------15--------------------------|
G|-------------------------------------|
D|-------------------------------------|
A|-------------------------------------|
E|-------------------------------------|

e|-15-17-15-----------------------------|
B|----------18-17---17-17b-17-17b-15-17-|
G|--------------------------------------|
D|--------------------------------------|
A|--------------------------------------|
E|--------------------------------------|


e|-------------------------------------|
B|-----------10--8---------------------|
G|--------7--------10-9---9-10-9-10-12-|
D|-7--10-------------------------------|
A|-------------------------------------|
E|-------------------------------------|

e|------------------------------------|
B|-----------10--8--------------------|
G|--------7--------10-9----9b--9b-7-9-|
D|-7--10------------------------------|
A|------------------------------------|
E|------------------------------------|

e|-------------------------------------|
B|-----------10--8---------------------|
G|--------7--------10-9---9-10-9-10-12-|
D|-7--10-------------------------------|
A|-------------------------------------|
E|-------------------------------------|

e|---------------------------------|
B|-----------10--8-----------------|
G|--------7--------10-9---9-9b-7-9-|
D|-7--10---------------------------|
A|---------------------------------|
E|---------------------------------|

e|-------------------------------------|
B|-----------10--8---------------------|
G|--------7--------10-9---9-10-9-10-12-|
D|-7--10-------------------------------|
A|-------------------------------------|
E|-------------------------------------|

e|------------------------------------------------17-|
B|-------------10--8---------------------------------|
G|--------7----------10-9---9-10-9-10-14-14-14-14----|
D|-7--10----10---------------------------------------|
A|---------------------------------------------------|
E|---------------------------------------------------|

e|-----------------------------|
B|-----------------------------|
G|------------7----------------|
D|---------7-----10--11-----11-|
A|-0-------------------------0-|
E|-----------------------------|
            

comments powered by Disqus
↑ Back to top | Ween Tabs for Israel. Lyrics for acoustic guitar and electric guitar. Tablatures and chords are parodies/interpretations of the original songs. You may use it for private study, scholarship, research or language learning purposes only